MUZBANK



A Most Complete Bank Of Music Information

МУЗЫКАЛЬНО-ИНФОРМАЦИОННЫЙ БАНК

Поиск по сайту







    EEraserheads • Huwag Mo Nang Itanong (аккорды и текст - chords & lyrics)


    238

    Print

    Видео «Huwag Mo Nang Itanong (Eraserheads)»

    Видео клипы к песне подбираются автоматически сайтом youtube. Возможны некоторые несоответствия клипов песне.

    ↑ Спрятать рекламу ↑



    Download


     
    
    
    Huwag mo nang itanong by Eraserheads
    
    Chords
    Stanza: E-A(4x) F#m-G#m-A-B
    Chorus: E-A(3x) F#m-B
    Ending Chords: F#-B(3x) G#m-C#
    
    During Chorus:
    -------
    -5-4-5-
    -------
    -------
    -------
    -------
    
    During Chorus: (Ending)
    -2-1-2-
    -------
    -------
    -------
    -------
    -------
    
    Instrumental: (Lead)
    -12-12-12s11-11-9-7--7-7-7s5-5-4-0-
    -----------------------------------
    -----------------------------------
    -----------------------------------
    -----------------------------------
    -----------------------------------
    
    -12-12-12s11-11-9-7--7-7-7-7-7-9-9-12-
    --------------------------------------
    --------------------------------------
    --------------------------------------
    --------------------------------------
    --------------------------------------
    
    Instrumental: (Bass)
    ------------------------------------
    ------------------------------------
    ------------------------------------
    ------------------------------------
    ---7-6-7--7-7-7-4-7-7s14-12-11h12-7-
    -7----------------------------------
    
    --------------------------------------
    --------------------------------------
    --------------------------------------
    --------------------------------------
    ---7-6-7s9--7-7-7-4-7-7s14-12-11h12-7-
    -7------------------------------------
    
    Ending:
    ---1---2---1---2s4-2-1-
    -2---2---2---2---------
    -----------------------
    -----------------------
    -----------------------
    -----------------------
    
    ---2---4---6---2s4-2-1-
    -4---4---4---4---------
    -----------------------
    -----------------------
    -----------------------
    -----------------------
    
    -END-
    
    rs_eradicator@yahoo.com
     

    Тональность:

    Нет текста!



    Назад
    Рекомендуем посмотреть другие песни исполнителя «Eraserheads»:

    • Комментарии Facebook ()
    • Комментарии ВКонтакте



    Добавить в Избранное Браузера
    Сохранить здесь Очистить


    x

    0


    +
    -

    +
    -

    -

    Авторизация





    Зарегистрироваться

    M

    Дата и время

    • 07:07:57
       

    Социальные ссылки


    Наши приложения

    • Muzbank App Play Market
    • Muzbank Amazon App