MUZBANK



A Most Complete Bank Of Music Information

МУЗЫКАЛЬНО-ИНФОРМАЦИОННЫЙ БАНК

Поиск по сайту







    EEraserheads • Minsan (аккорды и текст - chords & lyrics)


    220

    Print

    Видео «Minsan (Eraserheads)»

    Видео клипы к песне подбираются автоматически сайтом youtube. Возможны некоторые несоответствия клипов песне.

    ↑ Спрятать рекламу ↑



    Download


     
    
    
    Pare Ko by Eraserheads
    
    Intro:
    --------
    -8------
    ----4s5-
    --------
    --------
    --------
    
    Before Chorus:
    ---10---8-7-
    -8----8-----
    ------------
    ------------
    ------------
    ------------
    
    Instrumental:
    -15-----------15-15-----15s17-17--19-17-15-
    -----12h15-17--------17--------------------
    -------------------------------------------
    -------------------------------------------
    -------------------------------------------
    -------------------------------------------
    
    -17---15---12-------------------------------------------
    ---17---15---12-10------------------12s10---------------
    -------------------12--9h12-12-9h12-------9-12-12-9-7---
    ------------------------------------------------------5-
    --------------------------------------------------------
    --------------------------------------------------------
    
    -------------10----10-10s12-10s12-10-
    ------10s12-----12-------------------
    -9s12--------------------------------
    -------------------------------------
    -------------------------------------
    -------------------------------------
    
    Before 3rd Stanza:
    -------------------
    -------10-10-10-12-
    -9s12--------------
    -------------------
    -------------------
    -------------------
    
    -END-
    
    rs_eradicator@yahoo.com
     

    Тональность:

    Нет текста!



    Назад
    Рекомендуем посмотреть другие песни исполнителя «Eraserheads»:

    • Комментарии Facebook ()
    • Комментарии ВКонтакте



    Добавить в Избранное Браузера
    Сохранить здесь Очистить


    x

    0


    +
    -

    +
    -

    -

    Авторизация





    Зарегистрироваться

    M

    Дата и время

    • 19:42:33
       

    Социальные ссылки


    Наши приложения

    • Muzbank App Play Market
    • Muzbank Amazon App