MUZBANK



A Most Complete Bank Of Music Information

МУЗЫКАЛЬНО-ИНФОРМАЦИОННЫЙ БАНК

Поиск по сайту







    EEskimo Toccata • Untitled (аккорды и текст - chords & lyrics)


    256

    Print

    Видео «Untitled (Eskimo Toccata)»

    Видео клипы к песне подбираются автоматически сайтом youtube. Возможны некоторые несоответствия клипов песне.

    ↑ Спрятать рекламу ↑



    Download


     
    
    
    UNTITLED
    BY ESKIMO TOCCATA (GLYNN)
    TABBED BY BRYSON GORE
    
    INTRO/CHORUS                        X3
    |-------------------------------------|
    |-------------------------------------|
    |---------3-3-2-3--5-5-0--7-7-5--2-0--|
    |-3-3-2-3-----------------------------|
    
    |-------------------------------------------|
    |-------------------------------------------|
    |-9-9-9-9-9-9-9-9-9-12-12-12-12-12-12-12-12-|
    |-------------------------------------------|
    
    VERSE
    |-----------------------------------|
    |-----------------------------------|
    |-3-3-3-3-3-3-3-3-2-2-2-2---------3-|
    |-------------------------0-0-0-2---|
    
    BRIDGE
    |----------------9-10----------------------------9-10----------|
    |-7-7-9-7--7-7-9------------------7-7-9-7--7-7-9---------------|
    |-----------------------5----2--------------------------2----3-|
    |--------------------------------------------------------------|
     

    Тональность:

    Нет текста!



    Назад
    Рекомендуем посмотреть другие песни исполнителя «Eskimo Toccata»:

    • Комментарии Facebook ()
    • Комментарии ВКонтакте



    Добавить в Избранное Браузера
    Сохранить здесь Очистить


    x

    0


    +
    -

    +
    -

    -

    Авторизация





    Зарегистрироваться

    M

    Дата и время

    • 01:00:12
       

    Социальные ссылки


    Наши приложения

    • Muzbank App Play Market
    • Muzbank Amazon App