MUZBANK



A Most Complete Bank Of Music Information

МУЗЫКАЛЬНО-ИНФОРМАЦИОННЫЙ БАНК

Поиск по сайту







    EEverclear • A Beautiful Life (аккорды и текст - chords & lyrics)


    316

    Print

    Видео «A Beautiful Life (Everclear)»

    Видео клипы к песне подбираются автоматически сайтом youtube. Возможны некоторые несоответствия клипов песне.

    ↑ Спрятать рекламу ↑



    Download



     
    
    
    A Beautiful Life
    Slow Motion Daydream
    Lyrics By Art Alexakis
    Music By Everclear
    Tabbed By JR (soggypeaches@yahoo.com)
    
    
    (strings)
    You Seem To Make The Sam Mistakes Everyday
    Sometimes Its Hard To Open Your Eyes
    You Want To Be The Only Cake on the table
    Yeah You Say you don’t like surprises
    You Want to Find a pretty place you can stay
    
    Yeah You Just Don’t Wanna Live in LA
    
    
    e------0--0-----0----
    b----2------2-----2--
    g---3--------3------3
    d-0------------------
    a--------------------
    e--------------------
      Yeah 
    
    
    e-6~--8~-----6~-----6~
    b-6~--8~-8~--6~-10~-6~
    g-7~--9~-8~--7~-10~-7~
    d-8~--10~8~--8~-10~-8~
    a---------------------
    e---------------------
      I Just Wanna Be Where The Sun Shines Down 
      I Just Wanna Be Where The Sun Shines Down 
      I Just wanna be with you
    
    E------------------------------------------------
    B------------------------------------------------
    G------------------------------------------------
    d-12-12-12-12-12-12-12-12-12-4-4-4-4-4-4-4-4-4-4-
    a-12-12-12-12-12-12-12-12-12-4-4-4-4-4-4-4-4-4-4-
    e-10-10-10-10-10-10-10-10-10-2-2-2-2-2-2-2-2-2-2-
     PM ……………………………….................................
     Oh 
      I really hate the way you push me away
      I Do Not like it when you shut me out
      I say I love you but I don’t really know you
      I wanna change it but I Don’t know how
      I wanna leave when it gets ugly and cold
      I wanna leave when but I got no where to go YEAH
    
    E---------------------------------------------
    B---------------------------------------------
    G------------8-8-X-X---------10-10-X-X--------
    d-8~----10~--8-8-X-X-8-8-X-X-10-10-X-X-8-8-X-X
    a-8~----10~--6-6-X-X-8-8-X-X-8--8--X-X-8-8-X-X
    e-6~----8~-----------6-6-X-X-----------6-6-X-X
      I Just wanna Be where the sun shines down
      I Just wanna be where the Sun Shines Down 
      On A Beautiful Life
      I Just Wanna Find A Beautiful Life
      I Wanna be where the sun shines down 
      I Just wanna find a beautiful Life
    
    E----
    B----
    g-7-7
    d-8-8
    a-8-8
    e-6-6
      I Don’t Care Where We Go I Don’t Care What We Do 
      
    
    E------------------------------------------------
    B------------------------------------------------
    G------------------------------------------------
    d-12-12-12-12-12-12-12-12-12-4-4-4-4-4-4-4-4-4-4-
    a-12-12-12-12-12-12-12-12-12-4-4-4-4-4-4-4-4-4-4-
    e-10-10-10-10-10-10-10-10-10-2-2-2-2-2-2-2-2-2-2-
     PM ……………………………….................................
      You Seem To Make The Same Mistakes All The Time
      Sometimes Its Not So Hard To Understand Why
      You Say You Hate The Things That You Have Done
      Yeah You Have Been Running With Your Back to the sun
      You Wanna Find a place you don’t have to hide
      You Say you’re happy just to be alive
    
    E---------------------------------------------
    B---------------------------------------------
    G------------8-8-X-X---------10-10-X-X--------
    d-8~----10~--8-8-X-X-8-8-X-X-10-10-X-X-8-8-X-X
    a-8~----10~--6-6-X-X-8-8-X-X-8--8--X-X-8-8-X-X
    e-6~----8~-----------6-6-X-X-----------6-6-X-X
      I Just wanna Be where the sun shines down
      I Just wanna be where the Sun Shines Down 
      On A Beautiful Life
      I Just Wanna Find A Beautiful Life
      I Wanna be where the sun shines down 
      I Just wanna find a beautiful Life
    
    E----
    B----
    g-7-7
    d-8-8
    a-8-8
    e-6-6
      I Don’t Care Where We Go I Don’t Care What We Do 
      As Long As I Can Be With You
      I Just wanna be with you
     

    Тональность:

    Нет текста!



    Назад
    Рекомендуем посмотреть другие песни исполнителя «Everclear»:

    • Комментарии Facebook ()
    • Комментарии ВКонтакте



    Добавить в Избранное Браузера
    Сохранить здесь Очистить


    x

    0


    +
    -

    +
    -

    -

    Авторизация





    Зарегистрироваться

    M

    Дата и время

    • 21:15:12
       

    Социальные ссылки


    Наши приложения

    • Muzbank App Play Market
    • Muzbank Amazon App