MUZBANK



A Most Complete Bank Of Music Information

МУЗЫКАЛЬНО-ИНФОРМАЦИОННЫЙ БАНК

Поиск по сайту







    EEverclear • Happy (аккорды и текст - chords & lyrics)


    187

    Print

    Видео «Happy (Everclear)»

    Видео клипы к песне подбираются автоматически сайтом youtube. Возможны некоторые несоответствия клипов песне.

    ↑ Спрятать рекламу ↑



    Download


     
    
    
    -----------------------------------
    -----------------------------------
    -----------------------------------
    -6-6-6-6-6-6-6-6-6-6-6-6-6-6-------
    -6-6-6-6-6-6-6-6-6-6-6-6-6-6-------
    -4-4-4-4-4-4-4-4-4-4-4-4-4-4-------
    p.m.........................
    Davids got some issues now
    he says he never is good enough
    there is nothing that he wants to do
    nothing he does is ever good enough
    
    -----------------------------------
    -----------------------------------
    -----------------------------------
    -9*-8*-6-6-6-6-6-6-6-6-6-----------  *=play 8 times.
    -9--8--6-6-6-6-6-6-6-6-6-----------
    -7--6--4-4-4-4-4-4-4-4-4-----------
    p.m..............................
    he hears is from the girls that he likes
    that nothing is good enough
    he hears it loud when he tries to sleep at night
    that nothing is good enough
    
    Chorus
    
    -----------------------------------
    -----------------------------------
    -6*-8*-4*-2*-(6*-8*)---------------
    -6--8--4--2--(6--8-)-
     

    Тональность:

    Нет текста!



    Назад
    Рекомендуем посмотреть другие песни исполнителя «Everclear»:

    • Комментарии Facebook ()
    • Комментарии ВКонтакте



    Добавить в Избранное Браузера
    Сохранить здесь Очистить


    x

    0


    +
    -

    +
    -

    -

    Авторизация





    Зарегистрироваться

    M

    Дата и время

    • 13:05:12
       

    Социальные ссылки


    Наши приложения

    • Muzbank App Play Market
    • Muzbank Amazon App