MUZBANK



A Most Complete Bank Of Music Information

МУЗЫКАЛЬНО-ИНФОРМАЦИОННЫЙ БАНК

Поиск по сайту







    EEverclear • How To Win Friends And Influence Peopl (аккорды и текст - chords & lyrics)


    206

    Print

    Видео «How To Win Friends And Influence Peopl (Everclear)»

    Видео клипы к песне подбираются автоматически сайтом youtube. Возможны некоторые несоответствия клипов песне.

    ↑ Спрятать рекламу ↑



    Download


     
    
    
    How To Win Friends And Influence People
    Lyrics By Art Alexakis
    Music By Everclear
    Tabbed by JR (Soggypeaches@yahoo.com)
    
    e---------------------
    b---------------------
    g---------------------
    d-11-11-11-11-11-11-11
    a--------------------- Play This 4 Times
    e-9--9--9--9--9--9--9-
                          Its A Beautiful 
    
    e----------------------7--9
    b--------------------------
    g-10-10-10-10-10-10-10-----
    d-11-11-11-11-11-11-11-----
    a-11-11-11-11-11-11-11-----
    e-9--9--9--9--9--9--9------
      Day!  Yeah 
      If You Look Up In The Air
      You Can See The Sky
      Its A Beautiful Day
      Yeah 
      If You Stare At The Sun, 
      You Would Burn Your Eyes
    
    e-6~-------------7~
    b-6~-------------7~
    g-7~-------------8~
    d-8~-------------9~
    a-8~-------------9~
    e-6~-------------7~
      I Do Not Believe In The Lucky Numbers
    
    
    
    e-6~-------------7~
    b-6~-------------7~
    g-7~-------------8~
    d-8~-------------9~
    a-8~-------------9~
    e-6~-------------7~
      No I do not believe in the wishing on the stars
    
    e----------------------7--9----------------------7--9
    b----------------------------------------------------
    g----------------------------------------------------
    d-11-11-11-11-11-11-11------11-11-11-11-11-11-11-----
    a----------------------------------------------------
    e-9--9--9--9--9--9--9-------9--9--9--9--9--9--9------
                                                        Yeah To Tell You The Truth
    
    e-6~-------------7~
    b-6~-------------7~
    g-7~-------------8~
    d-8~-------------9~
    a-8~-------------9~
    e-6~-------------7~
     I Know There Is A Good Reason For All Of Your Bad Dreams
    
    
    
    e----------------------7--9----------------------7--9
    b----------------------------------------------------
    g----------------------------------------------------
    d-11-11-11-11-11-11-11------11-11-11-11-11-11-11-----
    a----------------------------------------------------
    e-9--9--9--9--9--9--9-------9--9--9--9--9--9--9------
                                You Know Thats Its True
    
    e-6~-------------7~
    b-6~-------------7~
    g-7~-------------8~
    d-8~-------------9~
    a-8~-------------9~
    e-6~-------------7~
     People Love To Tell You Things That Will Break Your
    
    e----------------------7--9----------------------7--9
    b----------------------------------------------------
    g----------------------------------------------------
    d-11-11-11-11-11-11-11------11-11-11-11-11-11-11-----
    a----------------------------------------------------
    e-9--9--9--9--9--9--9-------9--9--9--9--9--9--9------
     Heart              
     Yeah People Love To Break Your Heart
     AWWWW 
    
     
    e----------------------7--9
    b--------------------------
    g-10-10-10-10-10-10-10-----
    d-11-11-11-11-11-11-11-----
    a-11-11-11-11-11-11-11-----
    e-9--9--9--9--9--9--9------
     People Love To Break Your Heart
     
    e-6~-------------7~
    b-6~-------------7~
    g-7~-------------8~
    d-8~-------------9~
    a-8~-------------9~
    e-6~-------------7~
     I do not believe in the things that i can not see
    
    e----------------------7--9----------------------7--9
    b----------------------------------------------------
    g----------------------------------------------------
    d-11-11-11-11-11-11-11------11-11-11-11-11-11-11-----
    a----------------------------------------------------
    e-9--9--9--9--9--9--9-------9--9--9--9--9--9--9------
    
     
    e-6~-------------7~
    b-6~-------------7~
    g-7~-------------8~
    d-8~-------------9~
    a-8~-------------9~
    e-6~-------------7~
     No i do not believe in the pretty disguise
    
    e----------------------7--9----------------------7--9
    b----------------------------------------------------
    g----------------------------------------------------
    d-11-11-11-11-11-11-11------11-11-11-11-11-11-11-----
    a----------------------------------------------------
    e-9--9--9--9--9--9--9-------9--9--9--9--9--9--9------
                                                         Yeah To Tell You The Truth
    
    e-6~-------------7~
    b-6~-------------7~
    g-7~-------------8~
    d-8~-------------9~
    a-8~-------------9~
    e-6~-------------7~
     I No They Want Me To Believe That They Know Whats 
    
    e----------------------7--9----------------------7--9
    b----------------------------------------------------
    g----------------------------------------------------
    d-11-11-11-11-11-11-11------11-11-11-11-11-11-11-----
    a----------------------------------------------------
    e-9--9--9--9--9--9--9-------9--9--9--9--9--9--9------
     Best For me                                     You Know Thats Its True
    
    e-6~-------------7~
    b-6~-------------7~
    g-7~-------------8~
    d-8~-------------9~
    a-8~-------------9~
    e-6~-------------7~
     Cause People Love To Hurt YOu When You Close Your 
    
    e----------------------7--9----------------------7--9
    b----------------------------------------------------
    g----------------------------------------------------
    d-11-11-11-11-11-11-11------11-11-11-11-11-11-11-----
    a----------------------------------------------------
    e-9--9--9--9--9--9--9-------9--9--9--9--9--9--9------
     Eyes 
     Yeah People Love Hurt You When You Close Your Eyes
     (You will never see it coming)
    
    
    
    e----------------------7--9
    b--------------------------
    g-10-10-10-10-10-10-10-----
    d-11-11-11-11-11-11-11-----
    a-11-11-11-11-11-11-11-----
    e-9--9--9--9--9--9--9------
     Yeah 
     You Will Never See It Coming
     Yeah 
    
    (No Music) 
     Its A Beautiful 
    
    
    
    
    e----------------------------------------
    b----------------------------------------
    g-10-10-10-10-10-10--6-6--6-6-5-5-5-5-3-3
    d-11-11-11-11-11-11--7-7--7-7-6-6-6-6-4-4
    a-11-11-11-11-11-11--7-7--7-7-6-6-6-6-4-4
    e-9--9--9--9--9-9-9--5-5--5-5-4-4-4-4-2-2
    
    Day ee-yeah-ee-yeah
    Its A Beautiful Day 
    ee-yeah-ee-yeah
    Its A Beautiful Day
    ee-yeah-ee-yeah
    Its A Beautiful Day
    ee-yeah-ee-yeah
    
    (No Music)
    Its A Beautiful 
    
    e----------------------------------------
    b----------------------------------------
    g----------------------------------------
    d-11-11-11-11-11-11--7-7--7-7-6-6-6-6-4-4
    a----------------------------------------
    e-9--9--9--9--9-9-9--5-5--5-5-4-4-4-4-2-2
     Day
     Look Up The Sky Is Coming Down 
     Such A Beautiful Day
     Look Up The Sky Is Comnig Down
     Its A Beautiful Day ee-yeah
     Look Up The Sky Is Coming Down 
     Its A Beautiful Day ee-yeah
     Look Up The Sky Is Coming Down 
     
    (No Music)
    Its  Beautiful 
    
    e----------------------------------------
    b----------------------------------------
    g-10-10-10-10-10-10--6-6--6-6-5-5-5-5-3-3
    d-11-11-11-11-11-11--7-7--7-7-6-6-6-6-4-4
    a-11-11-11-11-11-11--7-7--7-7-6-6-6-6-4-4
    e-9--9--9--9--9-9-9--5-5--5-5-4-4-4-4-2-2
    
    Day ee-yeah-ee-yeah
    Its A Beautiful Day 
    ee-yeah-ee-yeah
    Its A Beautiful Day
    ee-yeah-ee-yeah
    Its A Beautiful Day
    ee-yeah-ee-yeah
    LOOK UP IN THE AIR 
    YOU WILL NEVER SEE IT COMNIG
    
    e----------------------7--9
    b--------------------------
    g-10-10-10-10-10-10-10-----
    d-11-11-11-11-11-11-11-----
    a-11-11-11-11-11-11-11-----
    e-9--9--9--9--9--9--9------
     OH 
     You Will Never See It Coming
     OH
     

    Тональность:

    Нет текста!



    Назад
    Рекомендуем посмотреть другие песни исполнителя «Everclear»:

    • Комментарии Facebook ()
    • Комментарии ВКонтакте



    Добавить в Избранное Браузера
    Сохранить здесь Очистить


    x

    0


    +
    -

    +
    -

    -

    Авторизация





    Зарегистрироваться

    M

    Дата и время

    • 16:50:06
       

    Социальные ссылки


    Наши приложения

    • Muzbank App Play Market
    • Muzbank Amazon App