MUZBANK



A Most Complete Bank Of Music Information

МУЗЫКАЛЬНО-ИНФОРМАЦИОННЫЙ БАНК

Поиск по сайту







    EEverclear • The New York Times (аккорды и текст - chords & lyrics)


    255

    Print

    Видео «The New York Times (Everclear)»

    Видео клипы к песне подбираются автоматически сайтом youtube. Возможны некоторые несоответствия клипов песне.

    ↑ Спрятать рекламу ↑



    Download



     
    
    
    The New York Times
    Slow Motion Daydream
    Lyrics by Art Alexakis
    Music By Everclear
    Tabbed By JR (soggypeaches@yahoo.com)
    
    ALL STRINGS TUNED DOWN A HALF STEP
    Eb------------------------------------------------------------------------- 
    Bb------------------------------------------------------------------------- 
    Gb-9-9-9-9-9-9-9-9--------------------------------------------------------- 
    Db-9-9-9-9-9-9-9-9-9-9-9-9-9-9-9-9-11-11-11-11-11-11-11-11-7-7-7-7-7-7-7-7- 
    Ab-7-7-7-7-7-7-7-7-9-9-9-9-9-9-9-9-11-11-11-11-11-11-11-11-7-7-7-7-7-7-7-7- 
    Eb-----------------7-7-7-7-7-7-7-7-9--9--9--9--9--9--9--9--5-5-5-5-5-5-5-5- 
    play this 2 times 
    
    Verse 1: 
    Eb------------------------------------- 
    Bb------------------------------------- 
    Gb------------------------------------- 
    Db-2-2-2-2-2-2-2-2--------------------- 
    Ab-2-2-2-2-2-2-2-2-5-5/11-11-7-7/9-9-2 
    Eb-0-0-0-0-0-0-0-0-7-7/9--9--5-5/7-7-0 
    pm ............... 
    It Makes No Sense To Me 
    I was living In A Different World When I Heard the News 
    I Keep on having the same bad dreams 
    And It Makes me Wanna Hurt All The People Who Have Done This Thing To You 
    
    Chorus 1: 
    Eb------------------------------------------------------------------------- 
    Bb------------------------------------------------------------------------- 
    Gb-9-9-9-9-9-9-9-9--------------------------------------------------------- 
    Db-9-9-9-9-9-9-9-9-9-9-9-9-9-9-9-9-11-11-11-11-11-11-11-11-7-7-7-7-7-7-7-7- 
    Ab-7-7-7-7-7-7-7-7-9-9-9-9-9-9-9-9-11-11-11-11-11-11-11-11-7-7-7-7-7-7-7-7- 
    Eb-----------------7-7-7-7-7-7-7-7-9--9--9--9--9--9--9--9--5-5-5-5-5-5-5-5- 
    When I See Your Face 
    I Can See You Smile 
    I read all about in the New York Times 
    When I See Your Eyes I Can See Your Life 
    When I think about what happened It just makes me Crazy 
    
    Verse 2: 
    Eb------------------------------------- 
    Bb------------------------------------- 
    Gb------------------------------------- 
    Db-2-2-2-2-2-2-2-2--------------------- 
    Ab-2-2-2-2-2-2-2-2-5-5/11-11-7-7/9-9-2 
    Eb-0-0-0-0-0-0-0-0-7-7/9--9--5-5/7-7-0 
    pm ............... 
    This makes no sense to me 
    This eye for an eye thing It has gone too far 
    I dont know anyone who does not hurt inside 
    I would Like To Believe we could learn from this 
    And maybe some day we can make things right. 
    
    CHORUS 2: 
    Eb---------------- 
    Bb---------------- 
    Gb---------------- 
    Db-4-4--6-6-6--7-7 
    Ab-4-4--6-6-6--7-7 
    Eb-2-2--4-4-4--5-5 
    I Wanna Believe In This World 
    I Wanna Believe In This Life 
    I Wanna Believe In a World That does not seem real when you read between the lines 
    
    Chorus 1: 
    Eb------------------------------------------------------------------------- 
    Bb------------------------------------------------------------------------- 
    Gb-9-9-9-9-9-9-9-9--------------------------------------------------------- 
    Db-9-9-9-9-9-9-9-9-9-9-9-9-9-9-9-9-11-11-11-11-11-11-11-11-7-7-7-7-7-7-7-7- 
    Ab-7-7-7-7-7-7-7-7-9-9-9-9-9-9-9-9-11-11-11-11-11-11-11-11-7-7-7-7-7-7-7-7- 
    Eb-----------------7-7-7-7-7-7-7-7-9--9--9--9--9--9--9--9--5-5-5-5-5-5-5-5- 
    When I See Your Face 
    I Can See You Smile I
    read all about in my New York Times 
    When I See Your Eyes I Can See Your Life 
    When I Read the words about you It just makes me Crazy 
    
    CHORUS 2: 
    Eb---------------- 
    Bb---------------- 
    Gb---------------- 
    Db-4-4--6-6-6--7-7 
    Ab-4-4--6-6-6--7-7 
    Eb-2-2--4-4-4--5-5 
    I Wanna Believe In This World 
    I Wanna Believe In This Life 
    I Wanna Believe In a World That does not seem real when you read between the lines 
    
    Middle Part 
    Eb-0--0--0--0--0 
    Bb-0--0--0--0--0 
    Gb-1--8--X--6--8 
    Db-2--9--11-7--9 
    Ab-2--9--11-7--9 
    Eb-0--7--9--5--7 
    Oh Gotta Read Between The Lines 
    Woah-oh-oh-oh 
    You Gotta Read Between The Lines 
    Woah-oh Woah 
    Yeah I really wanna believe i can make thing right 
    
    
    Eb---------------- 
    Bb---------------- 
    Gb---------------- 
    Db-4-4--6-6-6--7-7 
    Ab-4-4--6-6-6--7-7 
    Eb-2-2--4-4-4--5-5 
    pm ............... 
    I wanna believe I can learn how to feel alright inside 
    
    Eb---------------- 
    Bb---------------- 
    Gb---------------- 
    Db-4-4--6-6-6--7-7 
    Ab-4-4--6-6-6--7-7 
    Eb-2-2--4-4-4--5-5 
    I wanna Believe I can learn how to make things right 
    OH 
    
    CHORUS 2: 
    Eb---------------- 
    Bb---------------- 
    Gb---------------- 
    Db-4-4--6-6-6--7-7 
    Ab-4-4--6-6-6--7-7 
    Eb-2-2--4-4-4--5-5 
    I Wanna Believe In This World I Wanna Believe In This Life 
    I Wanna Believe In a World That does not seem real 
    when you read The New York Times 
    
    Chorus 1: 
    Eb------------------------------------------------------------------------- 
    Bb------------------------------------------------------------------------- 
    Gb-9-9-9-9-9-9-9-9--------------------------------------------------------- 
    Db-9-9-9-9-9-9-9-9-9-9-9-9-9-9-9-9-11-11-11-11-11-11-11-11-7-7-7-7-7-7-7-7- 
    Ab-7-7-7-7-7-7-7-7-9-9-9-9-9-9-9-9-11-11-11-11-11-11-11-11-7-7-7-7-7-7-7-7- 
    Eb-----------------7-7-7-7-7-7-7-7-9--9--9--9--9--9--9--9--5-5-5-5-5-5-5-5- 
    When I See Your Face 
    I Can See You Smile I read all about in my New York Times 
    When I See Your Eyes I Can See Your Life 
    When I Read the words about you 
    It just makes me Crazy 
    When I Close My Eyes 
    You Seem So Alive 
    When I think about what happened 
    it makes me wanna believe I can make things right 
    
    CHORUS 2: 
    Eb---------------- 
    Bb---------------- 
    Gb---------------- 
    Db-4-4--6-6-6--7-7
    Ab-4-4--6-6-6--7-7
    Eb-2-2--4-4-4--5-5 
    I wanna believe 
    I wanna believe 
    I wanna believe 
    OH 
    
    Eb---------------- 
    Bb---------------- 
    Gb---------------- 
    Db-4-4--6-6-6--7-7 
    Ab-4-4--6-6-6--7-7 
    Eb-2-2--4-4-4--5-5 
    I Wanna Believe In This World 
    I Wanna Believe In This Life 
    I Wanna Believe In a World That does not seem real 
    when you read The New York Times 
    Eb--- 
    Bb--- 
    Gb--- 
    Db-11 
    Ab-11 
    Eb-9- 
    let this ring out
     

    Тональность:

    Нет текста!



    Назад
    Рекомендуем посмотреть другие песни исполнителя «Everclear»:

    • Комментарии Facebook ()
    • Комментарии ВКонтакте



    Добавить в Избранное Браузера
    Сохранить здесь Очистить


    x

    0


    +
    -

    +
    -

    -

    Авторизация





    Зарегистрироваться

    M

    Дата и время

    • 21:44:29
       

    Социальные ссылки


    Наши приложения

    • Muzbank App Play Market
    • Muzbank Amazon App