MUZBANK



A Most Complete Bank Of Music Information

МУЗЫКАЛЬНО-ИНФОРМАЦИОННЫЙ БАНК

Поиск по сайту







    EEverclear • White Noise (аккорды и текст - chords & lyrics)


    293

    Print

    Видео «White Noise (Everclear)»

    Видео клипы к песне подбираются автоматически сайтом youtube. Возможны некоторые несоответствия клипов песне.

    ↑ Спрятать рекламу ↑



    Download


     
    
    
    White Noise
    Slow Motion Daydream
    Lyrics By Art Alexakis
    Music By Everclear
    Tabbed By JR (soggypeaches@yahoo.com)
    
    
    Guitar 1
    e-7-7-7-7-7-7-7-
    b-X-X-X-X-X-X-X-
    g-4-4-4-4-4-4-4-
    D---------------
    A---------------
    E---------------
    
    Guitar 2
    E------------
    B------------
    G------------
    d-9-9-9-9-9-9
    a-9-9-9-9-9-9
    e-7-7-7-7-7-7
    
      All The People That You Know That Say Your Ready To Break Down
    
    Both Guitars 
    E----------------------
    B----------------------
    G-----9-9---------9-9-9
    d-9-9-9-9-6-6-6-6-9-9-9
    A-9-9-7-7-6-6-6-6-7-7-7
    e-7-7-----4-4-4-4------
    
    Guitar 1
    e-7-7-7-7-7-7-7-
    b-X-X-X-X-X-X-X-
    g-4-4-4-4-4-4-4-
    D---------------
    A---------------
    E---------------
    
    Guitar 2
    E------------
    B------------
    G------------
    d-9-9-9-9-9-9
    a-9-9-9-9-9-9
    e-7-7-7-7-7-7
     All The People That You Know That Say Your Ready To Fall
    
    Both Guitars 
    
    E-----------------------
    B-----------------------
    G------9-9-----------9-9
    d-9-9--9-9--6-6-6-6--9-9
    A-9-9--7-7--6-6-6-6--7-7
    e-7-7-------4-4-4-4-----
    
    Guitar 1
    e-7-7-7-7-7-7-7-
    b-X-X-X-X-X-X-X-
    g-4-4-4-4-4-4-4-
    D---------------
    A---------------
    E---------------
    
    Guitar 2
    E------------
    B------------
    G------------
    d-9-9-9-9-9-9
    a-9-9-9-9-9-9
    e-7-7-7-7-7-7
      OH
    
    Guitar 1
    e-7-7-7-7-7-7-7-
    b-X-X-X-X-X-X-X-
    g-4-4-4-4-4-4-4-
    D---------------
    A---------------
    E---------------
    
    Guitar 2
    E------------
    B------------
    G------------
    d-9-9-9-9-9-9
    a-9-9-9-9-9-9
    e-7-7-7-7-7-7
    
     I Hope You Know That You Are Better Than They Think You Are
     
    Both Guitars 
    
    E-----------------------
    B-----------------------
    G------9-9-----------9-9
    d-9-9--9-9--6-6-6-6--9-9
    A-9-9--7-7--6-6-6-6--7-7
    e-7-7-------4-4-4-4-----
     I Hope You Know That You Have Never Really Tried
     
    Guitar 1
    e-7-7-7-7-7-7-7-
    b-X-X-X-X-X-X-X-
    g-4-4-4-4-4-4-4-
    D---------------
    A---------------
    E---------------
    
    Guitar 2
    E------------
    B------------
    G------------
    d-9-9-9-9-9-9
    a-9-9-9-9-9-9
    e-7-7-7-7-7-7
      I hope you know that you are never alone
      You got a good friend on the inside
      WOAH
    
    
    Both Guitars 
    
    E-----------------------
    B-----------------------
    G------9-9-----------9-9
    d-9-9--9-9--6-6-6-6--9-9
    A-9-9--7-7--6-6-6-6--7-7
    e-7-7-------4-4-4-4-----
    
       I Just wanna be there When you need to find your feet
       On the solid ground
       WOAH
       I Just wanna catch you when you fall down 
       When You Fall Down 
     
       All The People That You Know That Say
       Your Living In White Noise
       Yeah 
       All The People That You Know That Say
       Your Living In Hell
       They Don’t Know Anything
        
       I have to say that you are better than they say you are
       I have to say that you are stronger than you know
       I have to say that you are smart enough to handle
       Any stone that anyone could through
       WOAH
    
       I Just wanna be there when you need to find your feet on the 
       Solid ground
       WOAH
       I Just wanna catch you when you fall down
    
    E------------------------------
    B------------------------------
    G------------------------------
    d-9-9-9---4-4-4---6-6-6---2-2-2
    a-9-9-9---4-4-4---6-6-6---2-2-2
    e-7-7-7---2-2-2---4-4-4---0-0-0
      Catch you when you fall down
    
    E---------
    B---------
    g-8b-8b-8b
    D---------
    A---------
    e---------
      To all the people that you know that say your ready to break down YEAH
      To all the people that you know that say your ready to fall UH
    
    Both Guitars 
    
    E-----------------------
    B-----------------------
    G------9-9-----------9-9
    d-9-9--9-9--6-6-6-6--9-9
    A-9-9--7-7--6-6-6-6--7-7
    e-7-7-------4-4-4-4-----
      I have to say that you are better than they say you are
      I have to say that you are better than them all 
      I have to tell you than you have an easy answer when you need someone to call 
    
    WOAH 
    I just need to
    Be there when
    You feel like you
    Just need to come down
    
    I just wanna be there
    When you need to
    Find yourself on
    The solid ground
    
    I just wanna catch you
    When you fall down
    
    
    E------------------------------
    B------------------------------
    G------------------------------
    d-9-9-9---4-4-4---6-6-6---2-2-2
    a-9-9-9---4-4-4---6-6-6---2-2-2
    e-7-7-7---2-2-2---4-4-4---0-0-0
      Catch you when you fall down
     
    E------------------
    B------------------
    G------------------
    d-9-9-9-9-9-9-9-9-9
    a-9-9-9-9-9-9-9-9-9
    e-7-7-7-7-7-7-7-7-7
     

    Тональность:

    Нет текста!



    Назад
    Рекомендуем посмотреть другие песни исполнителя «Everclear»:

    • Комментарии Facebook ()
    • Комментарии ВКонтакте



    Добавить в Избранное Браузера
    Сохранить здесь Очистить


    x

    0


    +
    -

    +
    -

    -

    Авторизация





    Зарегистрироваться

    M

    Дата и время

    • 21:13:53
       

    Социальные ссылки


    Наши приложения

    • Muzbank App Play Market
    • Muzbank Amazon App