MUZBANK



A Most Complete Bank Of Music Information

МУЗЫКАЛЬНО-ИНФОРМАЦИОННЫЙ БАНК

Поиск по сайту







    EEvergreen Terrace • No Donnie These Men Are Nhilis (аккорды и текст - chords & lyrics)


    238

    Print

    Видео «No Donnie These Men Are Nhilis (Evergreen Terrace)»

    Видео клипы к песне подбираются автоматически сайтом youtube. Возможны некоторые несоответствия клипов песне.

    ↑ Спрятать рекламу ↑



    Download


     
    
    
    ok , this is my first tab, its the whole song and i know some of it is wrong.
    So i was hoping that people could try to fix it and we could make it 100% correct.
    
    Dropped D tuning
    
    and thanks to my favorite band , evergreen terrace...
    
    -------------------------------
    -------------------------------
    -------------------------------
    -7--5--3--2--------------------
    -7--5--3--2--------------------
    -7--5--3--2--------------------
    
    Guitar 2 does Palm mutes 
    
    --------------------------------------------------------------------------
    --------------------------13131313----------------------------------------
    --------14141414-12121212----------1010101010101010--1010-12p10-12p10-10p9
    13131313------------------------------------------------------------------
    --------------------------------------------------------------------------
    --------------------------------------------------------------------------
    
    --------------------------------------------------------------------------
    --------------------------13131313--1515151515151515-17-15-13-12----------
    --------14141414-12121212-------------------------------------------------
    13131313------------------------------------------------------------------
    --------------------------------------------------------------------------
    --------------------------------------------------------------------------
    
    --------------------------------------------------------------------------
    ---------------------------------------------------------5-66666----------
    999999-777777-555555-4/5-4-4/5-4----999999-777777-555555-x-xxxxx----------
    777777-555555-333333-2/3-2-2/3-2----777777-555555-333333-2-33333----------
    777777-555555-333333-2/3-2-2/3-2----777777-555555-333333-----------------
    777777-555555-333333-2/3-2-2/3-2----777777-555555-333333------------------
    
    ------------------------------13---------------------------
    ------------------------------17---------------------------
    ---------------------------------------------------------
    -00-0000-0000-0000---------00------------------------------
    -00-0000-0000-0000---------00------------------------------
    -00-0000-0000-0000---------00------------------------------
    
    ----------------------------------------------------|---Guitar 2-----|
    ----------------------------------------------------|----------------|
    ----------------------------------------------------|---7------------|
    0-0-0-0-------------------0----------0--------------|---x-strum------|
    0-0-0-0-------------------0-x6-------0-x4-----------|---5------------|
    0-0-0-0--7p5-6p5-7p4-6p4--0-----6p5--0----7p5-6p5---|----------------|
    
    repeat the high pitched part again
     

    Тональность:

    Нет текста!



    Назад
    Рекомендуем посмотреть другие песни исполнителя «Evergreen Terrace»:

    • Комментарии Facebook ()
    • Комментарии ВКонтакте



    Добавить в Избранное Браузера
    Сохранить здесь Очистить


    x

    0


    +
    -

    +
    -

    -

    Авторизация





    Зарегистрироваться

    M

    Дата и время

    • 22:49:49
       

    Социальные ссылки


    Наши приложения

    • Muzbank App Play Market
    • Muzbank Amazon App