MUZBANK



A Most Complete Bank Of Music Information

МУЗЫКАЛЬНО-ИНФОРМАЦИОННЫЙ БАНК

Поиск по сайту







    EEvergreen Terrace • Sunday Bloody Sunday (аккорды и текст - chords & lyrics)


    301

    Print

    Видео «Sunday Bloody Sunday (Evergreen Terrace)»

    Видео клипы к песне подбираются автоматически сайтом youtube. Возможны некоторые несоответствия клипов песне.

    ↑ Спрятать рекламу ↑



    Download



     
    
    
    Guitar Drop In D
    x = Palm Mute
    
    Drum Intro
    
    Part A
    E|-------------------------------------|
    B|-----4-------4--------2-------2------|
    G|---4---4---4---4----4---4---4---4----|
    D|-6-------4--------2-------2----------|
    A|-------------------------------------|
    D|-------------------------------------|
    Guitare 2
    E|-------------------------------------|
    B|-------------------------------------|
    G|-------------------------------------|2 Times
    D|-9-------6-------9-------6-----------|
    A|-9-------6-------9-------6-----------|
    D|-9-------6-------9-------6-----------|
    
    E|-----------------|
    B|-----------------|
    G|-----------------|
    D|-9-9-9-9-9-9-9-9-|
    A|-9-9-9-9-9-9-9-9-|
    D|-9-9-9-9-9-9-9-9-|
       x x x x x x x x
    
    Part B
    E|-------------------------------------------------------------|
    B|-------------------------------------------------------------|
    G|-------------------------------------------------------------|
    D|-6-6-6-6-6-6-6-6-9-9-9-9-9-9-9-9-0-0-0--0-0-0--0-0-0--0-0-0--|
    A|-6-6-6-6-9-6-6-6-9-9-9-9-9-9-9-9-0-0-0--0-0-0--0-0-0--0-0-0--|
    D|-6-6-6-6-6-6-6-6-9-9-9-9-9-9-9-9-0-0-0--0-0-0--0-0-0--0-0-0--|
    
    E|-------------------------------------------------------------|
    B|-------------------------------------------------------------|
    G|-------------------------------------------------------------|
    D|-6-6-6-6-6-6-6-6-9-9-9-9-9-9-9-9-0-0-2--0-0-2--0-0-2-2/4-4/2-|
    A|-6-6-6-6-9-6-6-6-9-9-9-9-9-9-9-9-0-0----0-0----0-0-----------|
    D|-6-6-6-6-6-6-6-6-9-9-9-9-9-9-9-9-0-0----0-0----0-0-----------|
    
    Part C
    E|---------------------------------------------|
    B|---------4-------------4---------2-x-2-x-2---|
    G|-----4-4---4-------4-4--4--------4-x-4-x-4---|
    D|-6-6---------6-4-4--------4--2-2-2-x-2-x-2---|
    A|---------------------------------------------|
    D|---------------------------------------------|
    
    Part D
    Guitare 2
    E|---------------------------------------------|
    B|---------------------------------------------|
    G|---------------------------------------------|2 Times
    D|-9-------------6------------2----------------|
    A|-9-------------6------------2----------------|
    D|-9-------------6------------2----------------|
    
    Part E
    E|----------------------------------------------------|
    B|----------------------------------------------------|
    G|----------------------------------------------------|2 Times
    D|-6-x-x-6--6-6--x-x-9-9----2-x-x-2--2-2--x-x--2-2----|
    A|-6-x-x-6--6-6--x-x-9-9----2-x-x-2--2-2--x-x--2-2----|
    D|-6-x-x-6--6-6--x-x-9-9----2-x-x-2--2-2--x-x--2-2----|
    
    Structure
    A-B-C-D-B-C-D-E-A
     

    Тональность:

    Нет текста!



    Назад
    Рекомендуем посмотреть другие песни исполнителя «Evergreen Terrace»:

    • Комментарии Facebook ()
    • Комментарии ВКонтакте



    Добавить в Избранное Браузера
    Сохранить здесь Очистить


    x

    0


    +
    -

    +
    -

    -

    Авторизация





    Зарегистрироваться

    M

    Дата и время

    • 04:53:23
       

    Социальные ссылки


    Наши приложения

    • Muzbank App Play Market
    • Muzbank Amazon App