MUZBANK



A Most Complete Bank Of Music Information

МУЗЫКАЛЬНО-ИНФОРМАЦИОННЫЙ БАНК

Поиск по сайту







    EExies • Kickout (аккорды и текст - chords & lyrics)


    233

    Print

    Видео «Kickout (Exies)»

    Видео клипы к песне подбираются автоматически сайтом youtube. Возможны некоторые несоответствия клипов песне.

    ↑ Спрятать рекламу ↑



    Download


     
    
    
    ********************************************
                    ***                 eXiEs                ***
                    ***                KiCkouT               ***
                    ********************************************
    Intro/Chorus
    lead
    e-------------------------------
    b-------------------------------
    g-------------------------------
    d-1-1-1/5-1-1-1-1/5-1-1-1-1/5-1-
    a-------------------------------
    D-------------------------------
    
    rythm  comes in
    e---------------------------------------
    b---------------------------------------
    g---------------------------------------
    d-1-1-1/5-1-1-1/5-1-1-1-1/5-1-0-0-0-1---
    a---------------------------------------
    D---------------------------------------
    
    e---------------------------------------
    b---------------------------------------
    g---------------------------------------
    d-1-1-1/5-1-1-1/5-1-1-1-1/5-1-0-0-0-1---
    a---------------------------------------
    D---------------------------------------
    
    Rythm
    e---------------------------------------
    b---------------------------------------
    g---------------------------------------
    d-----------------------------------7-8-
    a-1-1-1-1-1-6-6-6-6-6-3-3-3-3-3-6-6-5-6-
    D-1-1-1-1-1-6-6-6-6-6-3-3-3-3-3-6-6-----
    
    e-----------------------------
    b-----------------------------
    g-----------------------------
    d-----------------------------
    a-1-1-1-1-1-6-6-6-6-6-3-3-3-3-
    D-1-1-1-1-1-6-6-6-6-6-3-3-3-3-
    
    Verse-keep repeating this
    e-----------------------------
    b-----------------------------
    g-----------------------------
    d-----------------------------
    a-----------------------------
    D-1-1-1-1-1-6-6-6-6-6-6-6-6-6-
    
    i cant figure out the chord here i just play C
    so try it
     

    Тональность:

    Нет текста!



    Назад
    Рекомендуем посмотреть другие песни исполнителя «Exies»:

    • Комментарии Facebook ()
    • Комментарии ВКонтакте



    Добавить в Избранное Браузера
    Сохранить здесь Очистить


    x

    0


    +
    -

    +
    -

    -

    Авторизация





    Зарегистрироваться

    M

    Дата и время

    • 20:47:10
       

    Социальные ссылки


    Наши приложения

    • Muzbank App Play Market
    • Muzbank Amazon App