MUZBANK



A Most Complete Bank Of Music Information

МУЗЫКАЛЬНО-ИНФОРМАЦИОННЫЙ БАНК

Поиск по сайту







    EExies • My Goddess (аккорды и текст - chords & lyrics)


    227

    Print

    Видео «My Goddess (Exies)»

    Видео клипы к песне подбираются автоматически сайтом youtube. Возможны некоторые несоответствия клипов песне.

    ↑ Спрятать рекламу ↑



    Download



     
    
    
    The Exies- My Goddess
    Album: Inertia
    Transcribed by: Alex
    Two Guitars
    
    Drop D Tuning (could be played in standard tuning but its easier in drop d)
    
    figure out how many times you have to play each part yourself
    
    Intro (Both Guitars)
    E-----------------------
    B-----------------------
    G-----------------------
    D--6/8-8-x-7-777-6666---
    A--6/8-8-x-7-777-6666---
    D--6/8-8-x-7-777-6666---
    
    Verse (Both Guitars)
    E--------------------------
    B--------------------------
    G--3-3---3-3---6-6---4-4---
    D--3-3---3-3---6-6---4-4---
    A--1-1---1-1---4-4---2-2---
    D--------------------------
    
    Chorus
    Guitar #1
    E----------------------------------------------------------------------
    B----------------------------------------------------------------------
    G-------------------6-6-6--8-88-8888----------------6-6-6--8-88-8888---
    D--6/8-8-88-88-8888-6-6-6--8-88-8888--4-44-444-4444-6-6-6--8-88-8888---
    A--6/8-8-88-88-8888-4-4-4--6-66-6666--4-44-444-4444-4-4-4--6-66-6666---
    D--6/8-8-88-88-8888-------------------4-44-444-4444--------------------
    
    Guitar #2 (with some kind of wah effect)
    E----------------------------------------------------18-18-18-18---
    B------------------------------------------------------------------
    G-------------------6-6-6-8-8-8888---------------------------------
    D--6/8-8-6/8-8-8888-----------------6/8-8-6/8-8-8888---------------
    A------------------------------------------------------------------
    D------------------------------------------------------------------
    
    After Chorus
    Guitar #2 (w/wah effect)
    E------------------
    B------------------
    G------------------
    D--6/8-8-6/8-8-8---
    A------------------
    D------------------
    
    Verse
    
    Chorus
    
    
    
    
    
    Bridge
    Guitar #1 Only (Clean)
    E-----------------------------------------
    B--------------------4------------4-------
    G--6---8---6---8---6---6-8--8-6-6---6-8---
    D--6---8---6---8---6-----8------6-----8---
    A--4---6---4---6---4-----6------4-----6---
    D-----------------------------------------
    
    Chorus
    
    Outro- same as intro
    
    www.the-exies.com
    
    done.  that’s a pretty easy song.  feel free to post your comments or
    corrections, or e-mail them to me at paparoach182311@aol.com.  peace out.
     

    Тональность:

    Нет текста!



    Назад
    Рекомендуем посмотреть другие песни исполнителя «Exies»:

    • Комментарии Facebook ()
    • Комментарии ВКонтакте



    Добавить в Избранное Браузера
    Сохранить здесь Очистить


    x

    0


    +
    -

    +
    -

    -

    Авторизация





    Зарегистрироваться

    M

    Дата и время

    • 19:09:38
       

    Социальные ссылки


    Наши приложения

    • Muzbank App Play Market
    • Muzbank Amazon App