MUZBANK



A Most Complete Bank Of Music Information

МУЗЫКАЛЬНО-ИНФОРМАЦИОННЫЙ БАНК

Поиск по сайту







    EExploited • Fucking Liar (аккорды и текст - chords & lyrics)


    326

    Print

    Видео «Fucking Liar (Exploited)»

    Видео клипы к песне подбираются автоматически сайтом youtube. Возможны некоторые несоответствия клипов песне.

    ↑ Спрятать рекламу ↑



    Download


     
    
    
    Verse:
    
    E|---------------|
    B|---------------|
    G|---------6-5-3-|
    D|-5-5-5-5-6-5-3-|
    A|-5-5-5-5-4-3-1-|
    E|-3-3-3-3-------|
    
    Chorus:
    
    E|-----------------------------------------|
    B|-----------------------------------------|
    G|-------------3-3-3-3-3-3-------------5-5-|
    D|-5-5-5-5-5-5-3-3-3-3-3-3-3-3-3-3-3-3-5-5-|
    A|-5-5-5-5-5-5-1-1-1-1-1-1-3-3-3-3-3-3-3-3-|
    E|-3-3-3-3-3-3-------------1-1-1-1-1-1-----|
     

    Тональность:

    Нет текста!



    Назад
    Рекомендуем посмотреть другие песни исполнителя «Exploited»:

    • Комментарии Facebook ()
    • Комментарии ВКонтакте



    Добавить в Избранное Браузера
    Сохранить здесь Очистить


    x

    0


    +
    -

    +
    -

    -

    Авторизация





    Зарегистрироваться

    M

    Дата и время

    • 14:35:45
       

    Социальные ссылки


    Наши приложения

    • Muzbank App Play Market
    • Muzbank Amazon App