MUZBANK



A Most Complete Bank Of Music Information

МУЗЫКАЛЬНО-ИНФОРМАЦИОННЫЙ БАНК

Поиск по сайту







    EExploited • Holiday In The Sun (аккорды и текст - chords & lyrics)


    293

    Print

    Видео «Holiday In The Sun (Exploited)»

    Видео клипы к песне подбираются автоматически сайтом youtube. Возможны некоторые несоответствия клипов песне.

    ↑ Спрятать рекламу ↑



    Download


     
    
    
    Main Riff:
    
    E|-----------------|      |-----------------------------|
    B|-----------------|      |-----------------------------|
    G|-------------2-4-|  X2  |-------------2-4-5-5-5-5-5-5-|
    D|-4-4-4-4-4-4-2-4-|      |-4-4-4-4-4-4-2-4-5-5-5-5-5-5-|
    A|-4-4-4-4-4-4-0-2-|      |-4-4-4-4-4-4-0-2-3-3-3-3-3-3-|
    E|-2-2-2-2-2-2-----|      |-2-2-2-2-2-2-----------------|
    
    Chorus:
    
    E|------------------------|
    B|------------------------|
    G|--------8-7-7-----------|
    D|-5-4-4--8-7-7-8-7-7-5-4-|
    A|-5-4-4--6-5-5-8-7-7-5-4-|
    E|-3-2-2--------6-5-5-3-2-|
    
    Ending:
    
    E|---------------|
    B|---------------|
    G|---------------|
    D|-8-8-8-7-7-5-4-|
    A|-8-8-8-7-7-5-4-|
    E|-6-6-6-5-5-3-2-|
     

    Тональность:

    Нет текста!



    Назад
    Рекомендуем посмотреть другие песни исполнителя «Exploited»:

    • Комментарии Facebook ()
    • Комментарии ВКонтакте



    Добавить в Избранное Браузера
    Сохранить здесь Очистить


    x

    0


    +
    -

    +
    -

    -

    Авторизация





    Зарегистрироваться

    M

    Дата и время

    • 21:36:55
       

    Социальные ссылки


    Наши приложения

    • Muzbank App Play Market
    • Muzbank Amazon App