MUZBANK



A Most Complete Bank Of Music Information

МУЗЫКАЛЬНО-ИНФОРМАЦИОННЫЙ БАНК

Поиск по сайту







    FFactory 81 • Mankind (аккорды и текст - chords & lyrics)


    302

    Print

    Видео «Mankind (Factory 81)»

    Видео клипы к песне подбираются автоматически сайтом youtube. Возможны некоторые несоответствия клипов песне.

    ↑ Спрятать рекламу ↑



    Download


     
    
    
    Factory 81 - Mankind
    Submitted By: Schecter Man
    
    Tabber: John Cukras
    Email: riffreaper@yahoo.com
    
    Tuning: C G C F A D
    
    Intro:
    D----------
    A----------
    F----------
    C----------
    G-------2--
    C-2-323-2--
    
    Riff 1:
    D--------------------------------------------------
    A--------------------------------------------------
    F--------------------------------------------------
    C-------------------------------------------5555---                                       ----------2^
    G----7--5----7----5-----------0 (let ring)--3333-0-       (does this once after the 5 note-5-4-3-2----)
    C-00------00---00----00-2323--0------------------0-(ring)                                   
    pm..      ..   ..    ..
    
    Riff 2:
    D--------------------
    A--------------------
    F--------------------
    C--------------------
    G----2-3-5--3-5/3/5--
    C-00-2-3-5--3-5/3/5--
    pm..
    
    Riff 3:
    D------------------------------------
    A------------------------------------
    F------------------------------------
    C---2323-----------------------------
    G-0------0-----------2323-0----------
    C-0------0--00000000------0-00000000-
    pm          ........        ........
     

    Тональность:

    Нет текста!



    Назад
    Рекомендуем посмотреть другие песни исполнителя «Factory 81»:

    • Комментарии Facebook ()
    • Комментарии ВКонтакте



    Добавить в Избранное Браузера
    Сохранить здесь Очистить


    x

    0


    +
    -

    +
    -

    -

    Авторизация





    Зарегистрироваться

    M

    Дата и время

    • 11:00:49
       

    Социальные ссылки


    Наши приложения

    • Muzbank App Play Market
    • Muzbank Amazon App