MUZBANK



A Most Complete Bank Of Music Information

МУЗЫКАЛЬНО-ИНФОРМАЦИОННЫЙ БАНК

Поиск по сайту







    FFaith No More • I Wont Forget You (аккорды и текст - chords & lyrics)


    231

    Print

    Видео «I Wont Forget You (Faith No More)»

    Видео клипы к песне подбираются автоматически сайтом youtube. Возможны некоторые несоответствия клипов песне.

    ↑ Спрятать рекламу ↑



    Download


     
    
    
    Faith no more
    I wont forget you
    1998 Who cares alot? the greatest hits,
    bonus disc.
    Transcribed by MigiT
    migit@Phreaker.net
    
    Strum chords to rhythm of song
    
    Fig.1 (a)
    |0--0--0--0|
    |0--1--3--5|(rpt several times)
    |----------|
    |----------|
    
    Fig.1 (b)
    |0--0------|
    |0--1------|
    |----------|
    |----1xxx3|
    
    Fig.2 (a)
    |-----------|
    |-----------|
    |-----xxx3-2|
    |3-3-3------|
    
    Fig.2 (b  main riff)
    |---------------|
    |---------------|
    |---------xxx3-2|
    |0-0h3-3-3------|
    
    Fig.3
    |---------------|
    |---------------|
    |---------------|
    |0-0-0-0-0-0-0-0|
    
    Fig.4
    |------------|
    |------------|
    |-3-3-3-4-4-4|
    |2-2-2-3-3-3|
    
    fig.4 cont
    |---------------|
    |---------------|
    |---------------|
    |0-0-0-0-0-0-0-0|
    
    
    Chorus.1
    |-----------------|
    |-----------------|
    |-4---4-----5---5-|
    |2-2x2-2x2-3-3x3-3|
    
    Chorus.1 cont
    |---------------|
    |---------------|
    |---------------|
    |0-0-0-0-0-0-0-0|
    
    Fill.
    |-----------|
    |-----------|
    |----x-5-x-6|
    |3-2--------|
    
    Bridge.
    |-----------------------|
    |-----------------------|
    |1-0--------------------|
    |----0-1-1-1-1-1-1-1-1-1|
    
    Fig.5
    |         |-----------|
    |pause    |-----------|
    |(guitar) |6-6-6-7-7-7|
    |         |4-4-4-5-5-5|
    
    Fill
    |-----|
    |-----|
    |3-3-3|
    |1-1-1|
    
    Chorus.2
    |-----------------|
    |-----------------|
    |-5---5-----6---6-|
    |3-3x3-3x3x4-4x4-4|
    
    Fig.6(strum to rhythm)
    |0--0--0--0-3-3-3-3|
    |0--1--3--5-3-3-3-3|
    |------------------|
    |------------------|
    
    Any questions, probs, corrections, etc, etc,
    Email me at migit@Phreaker.net
    
    Rock on.
     

    Тональность:

    Нет текста!



    Назад
    Рекомендуем посмотреть другие песни исполнителя «Faith No More»:

    • Комментарии Facebook ()
    • Комментарии ВКонтакте



    Добавить в Избранное Браузера
    Сохранить здесь Очистить


    x

    0


    +
    -

    +
    -

    -

    Авторизация





    Зарегистрироваться

    M

    Дата и время

    • 07:18:59
       

    Социальные ссылки


    Наши приложения

    • Muzbank App Play Market
    • Muzbank Amazon App