MUZBANK



A Most Complete Bank Of Music Information

МУЗЫКАЛЬНО-ИНФОРМАЦИОННЫЙ БАНК

Поиск по сайту







    FFall Out Boy • Drugged Out (аккорды и текст - chords & lyrics)


    324

    Print

    Видео «Drugged Out (Fall Out Boy)»

    Видео клипы к песне подбираются автоматически сайтом youtube. Возможны некоторые несоответствия клипов песне.

    ↑ Спрятать рекламу ↑



    Download


     
    
    
    Tabber: John Cukras
    Email: riffreaper@yahoo.com
    
    If you tab the solo please send to me :D
    
    Tuning: Normal
    
    Riff 1:
    E----------------------------------------
    B----------------------------------------
    G----------------------------------------
    D-2--2-----------------2-----------------
    A-2--2-00-5-00-7-00-9--2-00-5-00-4-00-3--
    E-0--0-00-3-00-5-00-7--0-00-3-00-2-00-1--
    
    Riff 2:
    E-----------------------------------------------------
    B-----------------------------------------------------
    G-----------------------------------------------------
    D-----------------------------------------------------
    A-77777-44444-77777-44444-77777-44444-55555-4444-3333-
    E-55555-22222-55555-22222-55555-22222-33333-2222-1111-
    
    Riff 1
    
    Riff 2
    
    Riff 3: Played under the solo.
    E------------------------
    B------------------------
    G------------------------
    D-2-----2-----2----------
    A-2-----2-----2----------
    E-0-000-0-000-0-00-3-2-1-
    pm  ...   ...   ..
    
    Riff 1
    
    Riff 2
    
    Outro:
    E--------------------
    B--------------------
    G--------------------
    D--------------------
    A-5-00-7-00-9-00-10--
    E-3-00-5-00-7-00-8---
     

    Тональность:

    Нет текста!



    Назад
    Рекомендуем посмотреть другие песни исполнителя «Fall Out Boy»:

    • Комментарии Facebook ()
    • Комментарии ВКонтакте



    Добавить в Избранное Браузера
    Сохранить здесь Очистить


    x

    0


    +
    -

    +
    -

    -

    Авторизация





    Зарегистрироваться

    M

    Дата и время

    • 05:14:58
       

    Социальные ссылки


    Наши приложения

    • Muzbank App Play Market
    • Muzbank Amazon App