MUZBANK



A Most Complete Bank Of Music Information

МУЗЫКАЛЬНО-ИНФОРМАЦИОННЫЙ БАНК

Поиск по сайту







    FFall Out Boy • Saturday (аккорды и текст - chords & lyrics)


    291

    Print

    Видео «Saturday (Fall Out Boy)»

    Видео клипы к песне подбираются автоматически сайтом youtube. Возможны некоторые несоответствия клипов песне.

    ↑ Спрятать рекламу ↑



    Download


     
    
    
    Fall Out Boy
    Saturday
    Tabbed by Kellen
    
    x=quick stop
    ~=let ring
    
    Standard Tuning
    
    Verse
    E|--------------------------------------------------------------
    B|--------------------------------------------------------------
    G|--------------------------------------------------------------
    D|-6666666666666666-9999999999999999-2-22-22-22-1111111111111111
    A|-6666666666666666-9999999999999999-2-22-22-22-1111111111111111
    E|-4444444444444444-7777777777777777-0-00-00-00-9999999999999999
    
    E|----------------------------------------------------------------
    B|----------------------------------------------------------------
    G|----------------------------------------------------------------
    D|-2222222222222222-66-88-99-9999-22222222222222222222222222222222
    A|-2222222222222222-66-88-99-9999-22222222222222222222222222222222
    E|-0000000000000000-44-66-77-7777-00000000000000000000000000000000
    
    Pre Chorus  x2 (palm mute except for first chord in each group of chords)
    E|------------------------------------
    B|------------------------------------
    G|------------------------------------
    D|-66666666-99999999-11111111-99999999
    A|-66666666-99999999-11111111-99999999
    E|-44444444-77777777-99999999-77777777
    
    Lead to Chorus
    E|---------
    B|---------
    G|-------9~
    D|-4--6--9~
    A|-4--6--7~
    E|-2--4----
    
    Chorus  x2
    E|----------------------------------------------------
    B|----------------------------------------------------
    G|----------------------------------------------------
    D|-9999999999999999-1111111111111111-44444444-22222222
    A|-9999999999999999-1111111111111111-44444444-22222222
    E|-7777777777777777-9999999999999999-22222222-00000000
    
    Post Chorus  x2
    E|----------------------------------------
    B|----------------------------------------
    G|----------------------------------------
    D|-99999x-88888x-11111111-1414141414141414
    A|-99999x-88888x-11111111-1414141414141414
    E|-77777x-66666x-99999999-1212121212121212
    
    Now play the Pre Chorus, the first time through, play each chord just once and let
    it ring, then the second time through, do it with the palm mutes (except on the first
    chord of each group of chords, of course)
    
    Play Lead to Chorus followed by a pickslide
    
    Chorus
    
    Post Chorus
    
    Pre Bridge
    E|------------------------------
    B|------------------------------
    G|-------------9----------------
    D|-9~-2~-4~-6~-9-9-6-2~-4~-6~-9x
    A|-9~-2~-4~-6~-7-9-6-2~-4~-6~-9x
    E|-7~-0~-2~-4~---7-4-0~-2~-4~-7x
    
    Bridge  x4
    E|------------------------------------
    B|------------------------------------
    G|------------------------------------
    D|-22222222-44444444-66666666-99999999
    A|-22222222-44444444-66666666-99999999
    E|-00000000-22222222-44444444-77777777
    
    Post Bridge
    E|------------------------------------
    B|------------------------------------
    G|------------------------------------
    D|-9~--/             ---1111-14141414
    A|-9~-/ acoustic fill --1111-14141414
    E|-7~-               /--9999-12121212
    
    Chorus  x1
    
    Post Chorus x4
    
    Ending
    E|---------
    B|---------
    G|-------9~
    D|-4-6-9-9~
    A|-4-6-9-7~
    E|-2-4-7---
    
    corrections or comments, email kgator86@msn.com
     

    Тональность:

    Нет текста!



    Назад
    Рекомендуем посмотреть другие песни исполнителя «Fall Out Boy»:

    • Комментарии Facebook ()
    • Комментарии ВКонтакте



    Добавить в Избранное Браузера
    Сохранить здесь Очистить


    x

    0


    +
    -

    +
    -

    -

    Авторизация





    Зарегистрироваться

    M

    Дата и время

    • 09:57:49
       

    Социальные ссылки


    Наши приложения

    • Muzbank App Play Market
    • Muzbank Amazon App