MUZBANK



A Most Complete Bank Of Music Information

МУЗЫКАЛЬНО-ИНФОРМАЦИОННЫЙ БАНК

Поиск по сайту







    FFall Out Boy • Sending Postcards From A Plane Cras (аккорды и текст - chords & lyrics)


    277

    Print

    Видео «Sending Postcards From A Plane Cras (Fall Out Boy)»

    Видео клипы к песне подбираются автоматически сайтом youtube. Возможны некоторые несоответствия клипов песне.

    ↑ Спрятать рекламу ↑



    Download


     
    
    
    Song: Sending Postcards From A Plane Crash (Wish You Were Here)
    Album:Take This To Your Grave
    Artist: Fall Out Boy
    Tabber:Aaron Wagner
    
    Standard Tuning
    
    Intro-Pt. 1
    ~Guitar 1~
    e:-----------|
    B:-----------|
    G:-----------|
    D:--2-2------|
    A:--2-2------|
    E:--0-0------|
    
    ~Guitar 2~
    e:--------------------|
    B:--------------------|
    G:--9-9--11-11-13-13--|
    D:--x-x--x--x--x--x---|
    A:--7-7--9--9--11-11--|
    E:--------------------|
    
    Intro-Pt. 2
    ~Guitar 1~
    e:---------------------------------------|
    B:---------------------------------------|
    G:---------------------------------------|
    D:--2-2-2-2-2-2-2-2--4-4-4-4--6-6-6-6----|
    A:--2-2-2-2-2-2-2-2--4-4-4-4--6-6-6-6----|
    E:--0-0-0-0-0-0-0-0--2-2-2-2--4-4-4-4----|
    
    ~Guitar 2~
    e:------------------------------------------------|
    B:------------------------------------------------|
    G:--16~--9-9--11-11--9-9--11-11--9-9--11-11--9-9--|
    D:--x----x-x---x--x--x-x---x--x--x-x--x--x---x-x--| 
    A:--14~--7-7---9--9--7-7---9--9--7-7--9--9---7-7--|  
    E:------------------------------------------------|   
                                                           x2
    e:------------------------------------------------|   /
    B:------------------------------------------------|  / 
    G:--13~--9-9--11-11--9-9--11-11--9-9--11-11--9-9--| /
    D:--x----x-x---x--x--x-x---x--x--x-x--x--x---x-x--|/
    A:--11~--7-7---9--9--7-7---9--9--7-7--9--9---7-7--|
     

    Тональность:

    Нет текста!



    Назад
    Рекомендуем посмотреть другие песни исполнителя «Fall Out Boy»:

    • Комментарии Facebook ()
    • Комментарии ВКонтакте



    Добавить в Избранное Браузера
    Сохранить здесь Очистить


    x

    0


    +
    -

    +
    -

    -

    Авторизация





    Зарегистрироваться

    M

    Дата и время

    • 11:15:12
       

    Социальные ссылки


    Наши приложения

    • Muzbank App Play Market
    • Muzbank Amazon App