MUZBANK



A Most Complete Bank Of Music Information

МУЗЫКАЛЬНО-ИНФОРМАЦИОННЫЙ БАНК

Поиск по сайту







    FFatboy Slim • Rockafeller (аккорды и текст - chords & lyrics)


    318

    Print

    Видео «Rockafeller (Fatboy Slim)»

    Видео клипы к песне подбираются автоматически сайтом youtube. Возможны некоторые несоответствия клипов песне.

    ↑ Спрятать рекламу ↑



    Download


     
    
    
    Fatboy Slim,rockafeller skank.
     Tabbed by PP,crushgroove2000@excite.com.
      
    Artist: Fatboy Slim
    Song: Rockafeller Skank
    Tabed by PP
    
    Repeat 3 times
    E|-------------------------------------|
    B|-------------------------------------|
    G|-------------------------------------|
    D|-------------------------------------|
    A|--4h5-5-4h5-5-5-5-4h5-5-4h5-5-5-5----|
    E|-------------------------------------|
    
    Repeat 7 times
    E|-------------------------------------|
    B|-----8---8-----8----8----------------|
    G|-------------------------------------|
    D|--5---5-----5---5--------------------|
    A|-------------------------------------|
    E|-------------------------------------|
    
    Right about now...
    E|-------------------------------------|
    B|------8----------6------8------------|
    G|------7----------3------9------------|
    D|------------------------10-----------|
    A|-------------------------------------|
    E|-------------------------------------|
    
    Check it out now...
    E|-------------------------------------|
    B|--------8--------6------8------------|
    G|--------7--------3------9------------|
    D|------------------------10-----------|
    A|-------------------------------------|
    E|-------------------------------------|
    
    E|-------------------------------------|
    B|-----8------8----------8-10^---------|
    G|--7-----7-7---7--9-9-9---------------|
    D|-------------------------------------|
    A|-------------------------------------|
    E|-------------------------------------|
     

    Тональность:

    Нет текста!



    Назад
    Рекомендуем посмотреть другие песни исполнителя «Fatboy Slim»:

    • Комментарии Facebook ()
    • Комментарии ВКонтакте



    Добавить в Избранное Браузера
    Сохранить здесь Очистить


    x

    0


    +
    -

    +
    -

    -

    Авторизация





    Зарегистрироваться

    M

    Дата и время

    • 17:52:14
       

    Социальные ссылки


    Наши приложения

    • Muzbank App Play Market
    • Muzbank Amazon App