MUZBANK



A MOST COMPLETE BANK OF MUSIC INFORMATION

МУЗЫКАЛЬНО-ИНФОРМАЦИОННЫЙ БАНК







    FFeeder • Come Back Around (аккорды и текст - chords & lyrics)


    240

    Print

    Видео «Come Back Around (Feeder)»

    Видео клипы к песне подбираются автоматически сайтом youtube. Возможны некоторые несоответствия клипов песне.

    ↑ Спрятать рекламу ↑





     
    
    
    Come Back Around
    Feeder
    Alan Mcintyre
    ozzyismadsayi@hotmail.com
    
    this song is the best
    
    normal tuning
    verses
    |------------|
    |------------|
    |-5--10--8--3|
    |------------|
    
    heavy parts
    
    |-----------------|
    |---10----------10|
    |---------8--9----|
    |-10---10---------|
    
    chorus
    
    |-----------------------------------------------------|
    |-----------------------------------------------------|
    |-5-/-10--3-5---3--2--3-2-3----5--10--3--5--8-8--3-3-3|
    |-----------------------------------------------------|long middle heavy bit
    
    |----------------------|----------|
    |-------------10--10h12|-8---10h12|
    |--5--8--9--10---------|---8------|
    |----------------------|----------|
    
    
    thats basicly it,now we need a great drummer to tab it,and an exilent
     guitarist to finish the song off,and some 1 with no musical talent 
    to tab the lyrics.
     

    Тональность:

    Это должно быть в ТОП-листе! - Топ-лист композиций



    Назад
    Рекомендуем посмотреть другие песни исполнителя «Feeder»:

    • Комменты Fb ()
    • Комменты ВК



    Добавить в Избранное Браузера
    Сохранить здесь Очистить


    x

    0


    +
    -

    +
    -

    -

    Авторизация





    Зарегистрироваться

    M

    Дата и время

    • 17:53:22
       

    Социальные ссылки


    Наши приложения

    • Muzbank App Play Market
    • Muzbank Amazon App