MUZBANK



A Most Complete Bank Of Music Information

МУЗЫКАЛЬНО-ИНФОРМАЦИОННЫЙ БАНК

Поиск по сайту







    FFeeder • Comfort In Sound (аккорды и текст - chords & lyrics)


    284

    Print

    Видео «Comfort In Sound (Feeder)»

    Видео клипы к песне подбираются автоматически сайтом youtube. Возможны некоторые несоответствия клипов песне.

    ↑ Спрятать рекламу ↑



    Download



     
    
    
    Feeder - Comfort in Sound
    
    intro 
    G --------------------------------------------------------------------
    D --------------------------------------------------------------------
    A ---3-3-3-3-------5-5-5-5-5-5-5-5--3-3-3-3-----------5-5-5-5-5-5-5-5-
    E ----------3-3-3-3------------------------3-3-3-3--------------------
    
    we fall right in and suffer the sins, try to pull things round when the air starts to thin
    G --------------------------------------------------------------------
    D --------------------------------------------------------------------
    A ---3-3-3-3--------5-5-5-5-5-5-5-5--3-3-3-3----------5-5-5-5-5-5-5-5-
    E ----------3-3-3-3-------------------------3-3-3-3-------------------
    
    we nurse regrets, restricted in our own belief, a new disease
    G --------------------------------------------------------------------
    D --------------------------------------------------------------------
    A ---3-3-3-3-------5-5-5-5-5-5-5-5--------------------3-3-3-3-3-3-3-3-
    E ----------3-3-3-3-----------------5-5-5-5-5-5-5-5-------------------
    
    we shake new hands, the victims of fate, we tread new ground misfortune conveys
    G --------------------------------------------------------------------
    D --------------------------------------------------------------------
    A ---3-3-3-3-------5-5-5-5-5-5-5-5--3-3-3-3-----------5-5-5-5-5-5-5-5-
    E ----------3-3-3-3-------------------------3-3-3-3-------------------
    
    you tear yourself apart, wishing to be born again, a different man
    G --------------------------------------------------------------------
    D --------------------------------------------------------------------
    A ---3-3-3-3--------5-5-5-5-5-5-5-5-------------------3-3-3-3-3-3-3-3-
    E ----------3-3-3-3----------------5-5-5-5-5-5-5-5--------------------
    
    comfort in sound, it 

    Тональность:

    Нет текста!



    Назад
    Рекомендуем посмотреть другие песни исполнителя «Feeder»:

    • Комментарии Facebook ()
    • Комментарии ВКонтакте



    Добавить в Избранное Браузера
    Сохранить здесь Очистить


    x

    0


    +
    -

    +
    -

    -

    Авторизация





    Зарегистрироваться

    M

    Дата и время

    • 09:15:22
       

    Социальные ссылки


    Наши приложения

    • Muzbank App Play Market
    • Muzbank Amazon App