MUZBANK



A Most Complete Bank Of Music Information

МУЗЫКАЛЬНО-ИНФОРМАЦИОННЫЙ БАНК

Поиск по сайту







    FFenix Tx • Manufactured Inspirato (аккорды и текст - chords & lyrics)


    213

    Print

    Видео «Manufactured Inspirato (Fenix Tx)»

    Видео клипы к песне подбираются автоматически сайтом youtube. Возможны некоторые несоответствия клипов песне.

    ↑ Спрятать рекламу ↑



    Download


     
    
    
    Artist: Fenix Tx
    Title: Manufactured Inspirato
    Album: Lechuza
    Tabbed By: Calum (Afirock74@hotmail.com)
    
     = slide down
    / = slide up
    ~ = ring out
    
    Intro:-----------------------(Guitar 1 Part)--------------------------------
    e|-------------------|
    B|-------------------|
    G|-----------------5-|
    D|-3-55-3-55-3-55--5-|
    A|-3-55-3-55-3-55--3-| 6x
    E|-1-33-1-33-1-33----|
    
    Verse 1:
    e|--------|
    B|--------|
    G|--------|
    D|-3-55--|
    A|-3-55--| 
    E|-1-33--|
    
    Pre-Chorus:
    e|-----------------------------------------------------------------|
    B|-----------------------------------------------------------------|
    G|-3-3-3-3-3-3-3-3---------------5--3-3-3-3-3-3-3-3-3-5-5-5-5-5-5--|
    D|-3-3-3-3-3-3-3-3--55-3-55-3-55-5--3-3-3-3-3-3-3-3-3-5-5-5-5-5-5--|
    A|-1-1-1-1-1-1-1-1--55-3-55-3-55-3--1-1-1-1-1-1-1-1-1-3-3-3-3-3-3--|
    E|------------------33-1-33-1-33-----------------------------------|
    
    
    Chorus:
    e|-------------------|
    B|-------------------|
    G|-----------------5-|
    D|-3-55-3-55-3-55--5-|
    A|-3-55-3-55-3-55--3-| 4x
    E|-1-33-1-33-1-33----|
    
    
    Verse 2: (after 1st Chorus)
    e|-----------------------------------------------|
    B|-----------------------------------------------|
    G|----------------55-5-33-------------3-55-3-66--|
    D|-3-55--5-33--3--55-5-33--3-55-5-33--3-55-3-66--|
    A|-3-55--5-33--3--33-3-11--3-55-5-33--1-33-1-44--| 2x
    E|-1-33--3-11--1-----------1-33-3-11-------------|
    
    Solo:
    e|-------------------|
    B|-------------------|
    G|-----------------5-|
    D|-3-55-3-55-3-55--5-|
    A|-3-55-3-55-3-55--3-| 4x
    E|-1-33-1-33-1-33----|
    
    Outro:
    e|---------|
    B|---------|
    G|---------|
    D|-3-5-5--|
    A|-3-5-5--| 
    E|-1-3-3--|
    
    Intro:-----------------------(Guitar 2 Part)--------------------------------
    e|----------------------------------------|
    B|----------------------------------------|
    G|-5-44-5-44-5-44-7~-5-44-5-44-5-44-------| 2x
    D|----------------------------------5-----|
    A|----------------------------------------| 
    E|----------------------------------------|
    
    Verse 1:
    e|-----------------------|
    B|-----------------------|
    G|-12~-----12-15---------|
    D|-------15------15-14~--| 2x
    A|-----------------------| 
    E|-----------------------|
    
    Pre-Chorus:
    e|-----------------------------------------------------------------|
    B|-----------------------------------------------------------------|
    G|-3-3-3-3-3-3-3-3---------------5--3-3-3-3-3-3-3-3-3-5-5-5-5-5-5--|
    D|-3-3-3-3-3-3-3-3--55-3-55-3-55-5--3-3-3-3-3-3-3-3-3-5-5-5-5-5-5--|
    A|-1-1-1-1-1-1-1-1--55-3-55-3-55-3--1-1-1-1-1-1-1-1-1-3-3-3-3-3-3--|
    E|------------------33-1-33-1-33-----------------------------------|
    
    Chorus:
    e|-------------------|
    B|-------------------|
    G|-----------------5-|
    D|-3-55-3-55-3-55--5-|
    A|-3-55-3-55-3-55--3-| 4x
    E|-1-33-1-33-1-33----|
    
    Verse 2: (after 1st Chorus)
    e|-----------------------------------------------|
    B|-----------------------------------------------|
    G|----------------55-5-33-------------3-55-3-66--|
    D|-3-55--5-33--3--55-5-33--3-55-5-33--3-55-3-66--|
    A|-3-55--5-33--3--33-3-11--3-55-5-33--1-33-1-44--| 2x
    E|-1-33--3-11--1-----------1-33-3-11-------------|
    
    Solo:
    e|---------------------------|
    B|-3-3-3-3-3-3-3-3-3-3-3-3---|
    G|-0-0-0-0-0-0-0-0-0-0-0-0---| 
    D|---------------------------|
    A|---------------------------|
    E|---------------------------|
    
    Outro:
    e|----------------------------------------|
    B|----------------------------------------|
    G|-5-44-5-44-5-44-7~-5-44-5-44-5-44-------|
    D|----------------------------------5-----|
    A|----------------------------------------|
    E|----------------------------------------|
    
    Thanks
     

    Тональность:

    Нет текста!



    Назад
    Рекомендуем посмотреть другие песни исполнителя «Fenix Tx»:

    • Комментарии Facebook ()
    • Комментарии ВКонтакте



    Добавить в Избранное Браузера
    Сохранить здесь Очистить


    x

    0


    +
    -

    +
    -

    -

    Авторизация





    Зарегистрироваться

    M

    Дата и время

    • 21:27:43
       

    Социальные ссылки


    Наши приложения

    • Muzbank App Play Market
    • Muzbank Amazon App