MUZBANK



A Most Complete Bank Of Music Information

МУЗЫКАЛЬНО-ИНФОРМАЦИОННЫЙ БАНК

Поиск по сайту







    FFenix Tx • Pasture Of Muppets (аккорды и текст - chords & lyrics)


    264

    Print

    Видео «Pasture Of Muppets (Fenix Tx)»

    Видео клипы к песне подбираются автоматически сайтом youtube. Возможны некоторые несоответствия клипов песне.

    ↑ Спрятать рекламу ↑



    Download



     
    
    
    PASTURE OF MUPPETS - Fenix Tx
    
    By Ash Beaven (a5h2000@hotmail.com)
    
    M = palm mute
    
    Flat Tuning
    (tuned down 1/2 a step)
    
    INTRO (Both Guitars)
    |-------------------|      |---|
    |-------------------|      |---|
    |-66--22--66--44----|      |-6-|
    |-66--22--66--44-44-| x 2  |-x-| x 57 (with phaser or different FX)
    |-44--00--44--22-44-|      |-4-|
    |----------------22-|      |---|
    
    VERSE
    Guitar 1
    |----------------------------------|
    |----------------------------------|
    |-66-6----------------66-6---------|
    |-66-6--------6-7-----66-6-------6-| x 2
    |-44-4--------6-7-----44-4-------6-|
    |-------------4-5----------------4-|
      MM                  MM
    
    Guitar 2
    |----------------------------------|
    |----------------------------------|
    |-66-6----------------66-6---------|
    |-66-6--------6-7-----66-6-------6-| x 2
    |-44-4--4-4-0-6-7-----44-4-4-4-0-6-|
    |-------------4-5----------------4-|
      MM    M             MM   M
    
    PRE-CHORUS
    Guitar 1 
    |-------------------------------------------------------------------------|
    |-------------------------------------------------------------------------|
    |-66666666----------66666666-44444444-66666666----------66666666-44444444-|
    |-66666666-77777777-66666666-44444444-66666666-77777777-66666666-44444444-|
    |-44444444-77777777-44444444-22222222-44444444-77777777-44444444-22222222-|
    |----------55555555----------------------------55555555-------------------|
      MMMMMMMM MMMMMMMM MMMMMMMM MMMMMMMM MMMMMMMM MMMMMMMM MMMM
    
    Guitar 2
    |-------------------------------------------------------------------------|
    |-------------------------------------------------------------------------|
    |-66666666-66666666-66666666-4444-----66666666-66666666-66666666-4444-----|
    |-xxxxxxxx-xxxxxxxx-xxxxxxxx-xxxx4444-xxxxxxxx-xxxxxxxx-xxxxxxxx-xxxx4444-|
    |-44444444-44444444-44444444-2222xxxx-44444444-44444444-44444444-2222xxxx-|
    |--------------------------------2222--------------------------------2222-|
      MMMMMMMM MMMMMMMM MMMMMMMM MMMMMMMM MMMMMMMM MMMMMMMM MMMM
    
    CHORUS (Both guitars)
    |----------------------------------------------------------------------------|
    |----------------------------------------------------------------------------|
    |-66666666------------4-6666666------------66666666------------4-6666666-----|
    |-66666666-------2222-4-6666666-------5555-66666666-------2222-4-6666666-----|
    |-44444444-4-2---2222-2-4444444-4-2---5555-44444444-4-2---2222-2-4444444-4-2-|
    |--------------3-0000---------------3-3333--------------3-0000---------------|
    
    |----------------------------------------------------------------|
    |----------------------------------------------------------------|
    |----------------------------------------------------------------|
    |-55555-7-44444-6-33333-5-2222222-55555-7-44444-6-33333-5-2-2222-|
    |-55555-7-44444-6-33333-5-2222222-55555-7-44444-6-33333-5-2-2222-|
    |-33333-5-22222-4-11111-3-0000000-33333-5-22222-4-11111-3-0-0000-|
                                                                MMM
    Bridge (Both guitars using weird FX)
    |-----------------------|
    |-----------------------|
    |-6---6---6---6---------|
    |-x---x---x---x---22-22-|
    |-4---4---4---4---22-00-|
    |-----------------00-00-|
     

    Тональность:

    Нет текста!



    Назад
    Рекомендуем посмотреть другие песни исполнителя «Fenix Tx»:

    • Комментарии Facebook ()
    • Комментарии ВКонтакте



    Добавить в Избранное Браузера
    Сохранить здесь Очистить


    x

    0


    +
    -

    +
    -

    -

    Авторизация





    Зарегистрироваться

    M

    Дата и время

    • 14:53:40
       

    Социальные ссылки


    Наши приложения

    • Muzbank App Play Market
    • Muzbank Amazon App