MUZBANK



A Most Complete Bank Of Music Information

МУЗЫКАЛЬНО-ИНФОРМАЦИОННЫЙ БАНК

Поиск по сайту







    FFilicide • Believe In Me (аккорды и текст - chords & lyrics)


    234

    Print

    Видео «Believe In Me (Filicide)»

    Видео клипы к песне подбираются автоматически сайтом youtube. Возможны некоторые несоответствия клипов песне.

    ↑ Спрятать рекламу ↑



    Download


     
    
    
    Artist:FILICIDE
    Song:Believe In Me
    
    INTRO:
    
    E]00000000000000000000000000000000000000000000000000000000------------
    B]55555555666666665555555566667777555555556666666655555555------------
    G]--------------------------------------------------------------------
    D]---------------------------------------------------------15-17----
    A]---------------------------------------------------------15-17----
    E]---------------------------------------------------------15-17----
    
    VERSE:
    
    E]-----------------------------------------------
    B]-----------------------------------------------
    G]-----------------------------------------------
    D]3-5-34-68------------------------------------
    A]3-5-34-68------------------------------------
    E]3-5-34-68------------------------------------
    
    PRE-CHORUS:
    (BASS)
    
    [------------------------------------------------------------
    [------------------------------------------------------------
    [------------------------------------------------------------
    [00000000000000000000000000000000000000000000000000000-------
    
    CHORUS:
    
    E]-----------------------------------------------
    B]-----------------------------------------------
    G]-----------------------------------------------
    D]-----------------------------------------------
    A]-12-12-12-12-12-12-12-12-12-12-12-12-9-10------
    E]-10-10-10-10-10-10-10-10-10-10-10-10-7-8-------
     repeat 4x
    
    BRIDGE/OUTRO
    
    E]-----------------------------------------------
    B]-----------------------------------------------
    G]----------------------------7-6-5---7-6-5-----
    D]--------------------------5-7-6-5-5-7-6-5-----
    A]--5-4-3-5-4-3-5-4-3-5-4-3-5-5-4-3-5-5-4-3-----
    E]-3-----3-----3-----3------3-------3------------
    
    1.INTRO
    2.VERSE
    3.PRE-CHORUS
    4.CHORUS
    5.VERSE
    6.PRE-CHORUS
    7.CHORUS
    8.BRIDGE
    9.CHORUS
    10.OUTRO
    ====
     

    Тональность:

    Нет текста!



    Назад
    Рекомендуем посмотреть другие песни исполнителя «Filicide»:

    • Комментарии Facebook ()
    • Комментарии ВКонтакте



    Добавить в Избранное Браузера
    Сохранить здесь Очистить


    x

    0


    +
    -

    +
    -

    -

    Авторизация





    Зарегистрироваться

    M

    Дата и время

    • 14:36:12
       

    Социальные ссылки


    Наши приложения

    • Muzbank App Play Market
    • Muzbank Amazon App