MUZBANK



A Most Complete Bank Of Music Information

МУЗЫКАЛЬНО-ИНФОРМАЦИОННЫЙ БАНК

Поиск по сайту







    FFive Iron Frenzy • Farenheit (аккорды и текст - chords & lyrics)


    250

    Print

    Видео «Farenheit (Five Iron Frenzy)»

    Видео клипы к песне подбираются автоматически сайтом youtube. Возможны некоторые несоответствия клипов песне.

    ↑ Спрятать рекламу ↑



    Download


     
    
    
    Song: Fahrenheit
    Artist: Five iron frenzy
    Tabbed by: Ryan willet
    This is one of my favorite five iron songs
    Key: >=play as many times as is on the cd r= let ring /e= slide down
    the e string
    intro:
    G-------------------------------------------------------------
    D-------------------------------------------------------------
    A--------------------------------------------------------8-8--
    E--/e--0r--4r--7r--9r--00--77--44--99--0r--4r--7r--9r--(1313)-
    Verse:
    G-------------------------------
    D-------------------------------
    A--0--2--4--2--0----------------
    E-----------------44------------
    PreChorus:
    G----------------------
    D----------------------
    A--00--4r---22--7r-----
    E----------------------
    Chorus
    G---------------------------------------------------
    D---------------------------------------------------
    A-0r-4r--7r-99-9r-7r-4r-00-2r-5r-7r-55-7r-4r-0------
    E---------------------------------------------------
    The bridge would take up a million sheets of paper its
    switching between just playing even frets up and down on 
    the a and d string
    thats all thanx being honest about credit in tabs
     

    Тональность:

    Нет текста!



    Назад
    Рекомендуем посмотреть другие песни исполнителя «Five Iron Frenzy»:

    • Комментарии Facebook ()
    • Комментарии ВКонтакте



    Добавить в Избранное Браузера
    Сохранить здесь Очистить


    x

    0


    +
    -

    +
    -

    -

    Авторизация





    Зарегистрироваться

    M

    Дата и время

    • 21:26:23
       

    Социальные ссылки


    Наши приложения

    • Muzbank App Play Market
    • Muzbank Amazon App