MUZBANK



A Most Complete Bank Of Music Information

МУЗЫКАЛЬНО-ИНФОРМАЦИОННЫЙ БАНК

Поиск по сайту







    FFive Iron Frenzy • Ugly Day (аккорды и текст - chords & lyrics)


    279

    Print

    Видео «Ugly Day (Five Iron Frenzy)»

    Видео клипы к песне подбираются автоматически сайтом youtube. Возможны некоторые несоответствия клипов песне.

    ↑ Спрятать рекламу ↑



    Download


     
    
    
    Band: Five Iron Frenzy
    Song: Ugly Day
    Album: All The Hype money Can Buy
    Tabbed: ybbob182@hotmail.com
    
    Intro:
    
    G|----------------
    D|--4-----2-------
    A|-5-5-2-5--5-4-2-0
    E|------3---------
    
    Verses 1&2 :
    
    G|-------------------------------------
    D|-----5555-------------5555------------
    A|-5555----5555-----5555-----2222-----777
    E|-------------5555--------------5555---
    
    G|-------------------------------
    D|--------55555-------------------
    A|-----555------222222------------
    E|-5555----------------55555-333333
    
    Chorus 1&2:
    
    G|------------------------------------------
    D|------------------------------------------
    A|-55--------55----22----55-----------22-----
    E|---5-33-55----555---333---5-33-55-33----5555
    
    Bridge 1: ( when they keep yelling  whoa)
    
    G|---------
    D|---------
    A|-----5555
    E|-3333----
    
    Verse 3:
    
    G|------------------------------
    D|------------------------------
    A|--------------22---------444-22
    E|-0000-555-0000----0000-555------
    
    G|--------------------------------
    D|--------------------------------
    A|-----222---------4444-2222-------
    E|-2222----0000-555----------5555555
    
    Last Chorus:
    
    G|-----------------------------------------
    D|-----------------------------------------
    A|---2--------222-44------2---------444-2222
    E|-00-55-77-00-------55-00--55-77-555--------
    
    Last Bridge:
    
    G|---------
    D|---------
    A|---------
    E|-5555-0000
    
    Outro:
    
    G|--1------------
    D|-2----2-4-2-1---
    A|---4-0-------4-2
    E|----------------
    
    	Listen to cd to get the way you hit the notes because its hard to put the rythym on the tab.
    
    	corrections or comments: ybbob182@hotmail.com
     

    Тональность:

    Нет текста!



    Назад
    Рекомендуем посмотреть другие песни исполнителя «Five Iron Frenzy»:

    • Комментарии Facebook ()
    • Комментарии ВКонтакте



    Добавить в Избранное Браузера
    Сохранить здесь Очистить


    x

    0


    +
    -

    +
    -

    -

    Авторизация





    Зарегистрироваться

    M

    Дата и время

    • 21:37:37
       

    Социальные ссылки


    Наши приложения

    • Muzbank App Play Market
    • Muzbank Amazon App