MUZBANK



A Most Complete Bank Of Music Information

МУЗЫКАЛЬНО-ИНФОРМАЦИОННЫЙ БАНК

Поиск по сайту







    FFive • Until The Time Is Through (аккорды и текст - chords & lyrics)


    286

    Print

    Видео «Until The Time Is Through (Five)»

    Видео клипы к песне подбираются автоматически сайтом youtube. Возможны некоторые несоответствия клипов песне.

    ↑ Спрятать рекламу ↑



    Download


     
    
    
    Five-Until the time is through
    
     ( G/B D C ) (Em Bm Am D)
    
    ||--3-----|--2-------|--0---------------|--2-------|----------------|10------14----2---|--2-0-------------|----3-----2---------|--3---------------|
    ||--3-----|--10------|--1---------------|--3-------|--------------0-|203-----10----15--|--3---------------|----5---------------|--3-------------0-|
    ||0-16--0-|2-----0---|--120-0-0-0-------|--14--0-2-|0-0-0-0---------|--2-------------0-|--2-0-------------|----------2---------|--160-0-0-0-------|
    ||----0---|----0---4-|0-----------0-0-2-|0---4-----|----------------|--4-4-4---0-0---0-|--0---0---------2-|0-2---0---0-2-0-0---|0-17--------------|
    ||--------|----------|--3---------------|----5-----|----------------|--------------0---|0-7-3---3-3-3-3---|----3-------------0-|------------------|
    ||--3-----|----------|------------------|----------|--------3-3-3---|3-----------------|------------------|--------2-----------|--3---------3-3-3-|
       
    |10--------14----2-----|----0-------------|3---2-------------|------3-----------------|100-0---16------4-------|----0-----------------|
    |203-3-----10----15----|----1-------------|5-----------------|--3-3-3-3-3-3-------1-0-|200-0---12------17----0-|--1-1-1-3-1-------0---|
    |----2-------------0---|----0-------------|----2-----------0-|2---7-------------------|2-----0---2-0-----2-----|----0---------------2-|
    |--0---4-4-4-0-0-----0-|2---140---------2-|--0-0-2-0-0-4-----|0---0-------------------|------------------------|----14----------------|
    |----------------0-----|0-3-----3-3-3-3---|3-------------0---|------------------------|----------------2-------|2-3---------3-3-3-----|
    |3---------------------|------------------|------------------|------3-------3-3-3-----|3-----------0-0-----0---|----------------------|
     

    Тональность:

    Нет текста!



    Назад
    Рекомендуем посмотреть другие песни исполнителя «Five»:

    • Комментарии Facebook ()
    • Комментарии ВКонтакте



    Добавить в Избранное Браузера
    Сохранить здесь Очистить


    x

    0


    +
    -

    +
    -

    -

    Авторизация





    Зарегистрироваться

    M

    Дата и время

    • 07:32:57
       

    Социальные ссылки


    Наши приложения

    • Muzbank App Play Market
    • Muzbank Amazon App