MUZBANK



A Most Complete Bank Of Music Information

МУЗЫКАЛЬНО-ИНФОРМАЦИОННЫЙ БАНК

Поиск по сайту







    FFleetwood Mac • When I See You Again (аккорды и текст - chords & lyrics)


    341

    Print

    Видео «When I See You Again (Fleetwood Mac)»

    Видео клипы к песне подбираются автоматически сайтом youtube. Возможны некоторые несоответствия клипов песне.

    ↑ Спрятать рекламу ↑



    Download


     
    
    
    Song: When i see you again
    Band: Fleetwood mac
    Album: Tango in the Night
    Tabbed: Daniel Thomas (dt_69er@hotmail.com)
    Tuning E A D G B E
    
    Chords used:
    D:  xx0232
    A:  x02220
    E:  xx9997 (a regluar E chord sounds good too)
    
    VERSE riff:
    e|---------0-------|---------0-------|---------0-------|---------0--------|
    B|-----0-------0---|-----0-------0---|-----0-------0---|-----0-------0----|
    G|---2---2---2---2-|---2---2---2---2-|---2---2---2---0-|---2---2---2---2--|
    D|-----------------|-----------------|-----------------|------------------|
    A|-0---------------|-0---------------|-----------------|------------------|
    E|-----------------|-----------------|-0---------------|-0----------------|
    
    CHORUS riff:
    e|---0---0-----|---0---0-----|---0---0------|
    B|-----0---0---|-----0---0---|-----0---0----|
    G|-----------2-|-----------2-|-----------2--|
    D|-------------|-------------|-0------------|
    A|-2-----------|-4-----------|--------------|
    E|-------------|-------------|--------------|
    
    BRIDGE riff:
    (this isn 

    Тональность:

    Нет текста!



    Назад
    Рекомендуем посмотреть другие песни исполнителя «Fleetwood Mac»:

    • Комментарии Facebook ()
    • Комментарии ВКонтакте



    Добавить в Избранное Браузера
    Сохранить здесь Очистить


    x

    0


    +
    -

    +
    -

    -

    Авторизация





    Зарегистрироваться

    M

    Дата и время

    • 23:39:15
       

    Социальные ссылки


    Наши приложения

    • Muzbank App Play Market
    • Muzbank Amazon App