MUZBANK



A Most Complete Bank Of Music Information

МУЗЫКАЛЬНО-ИНФОРМАЦИОННЫЙ БАНК

Поиск по сайту







    FFlogging Molly • Devils Dance Floor (аккорды и текст - chords & lyrics)


    349

    Print

    Видео «Devils Dance Floor (Flogging Molly)»

    Видео клипы к песне подбираются автоматически сайтом youtube. Возможны некоторые несоответствия клипов песне.

    ↑ Спрятать рекламу ↑



    Download


     
    
    
    ------------------------------------------------------------------------------- 
                  DEVILS DANCE FLOOR - FLogging Molly 
    -------------------------------------------------------------------------------
    By: Satan Clause
    
    Intro (originally played on a pan flute or something) 
    e:-12-13/15-13-12-12h13-12-13-13-----------------: 
    b:-------------------------------10-10-12-10-8-8-: 
    g:-----------------------------------------------: 
    D:-----------------------------------------------: 
    A:-----------------------------------------------: 
    E:-----------------------------------------------: 
    
    Chorus 
    Am F Em 
    e:-0000000000-11111-00000-: 
    b:-1111111111-11111-00000-: 
    g:-2222222222-22222-00000-: 
    D:-2222222222-33333-22222-: 
    A:-0000000000-33333-22222-: 
    E:------------11111-00000-: 
    
    e:-11-00-00-: 
    b:-11-00-11-: 
    g:-22-00-22-: 
    D:-33-22-22-: 
    A:-33-22-00-: 
    E:-11-00----: 
    
    
    Verse: (Just that pan flute part, electric hits muted strings at one point) 
    
    Verse Outro: 
    Am Em 
    e:-00000000-00000000-: 
    b:-11111111-00000000-: 
    g:-22222222-00000000-: 
    D:-22222222-22222222-: 
    A:-00000000-22222222-: 
    E:----------00000000-: 
    
    Bridge 
    Bm G F#m 
    e:-2222222222-33333-22222-: 
    b:-3333333333-33333-22222-: 
    g:-4444444444-44444-22222-: 
    D:-4444444444-55555-44444-: 
    A:-2222222222-55555-44444-: 
    E:------------33333-22222-: 
    
    then 
    
    only on electric 
    e:--------- 
    b:--------- 
    g:--------- 
    D:-7-/....- 
    A:-7-/....- 
    E:-5-/....- 
    
    Pan flute part x2 
    
    (This part is accordian, pan flute and mandolin, but I tabbed it anyway) 
    Pan flute 
    e:-12-----------------------10----------: 
    b:----10-10-12-10--10-12-13----13-12-12-: 
    g:--------------------------------------: 
    D:--------------------------------------: 
    A:--------------------------------------: 
    E:--------------------------------------: 
    
    Mandolin 
    e:-12-----------------------10----------: 
    b:----10-10-12-10--10-12-13----13-12-12-: 
    g:--------------------------------------: 
    D:--------------------------------------: 
    A:--------------------------------------: 
    E:--------------------------------------: 
    
    Pan flute 
    e:-12-----------------------10----------: 
    b:----10-10-12-10--10-12-13----12-------: 
    g:--------------------------------------: 
    D:--------------------------------------: 
    A:--------------------------------------: 
    E:--------------------------------------: 
    
    Mandolin 
    e:-12-----------------------10-12-12-12-:
     

    Тональность:

    Нет текста!



    Назад
    Рекомендуем посмотреть другие песни исполнителя «Flogging Molly»:

    • Комментарии Facebook ()
    • Комментарии ВКонтакте



    Добавить в Избранное Браузера
    Сохранить здесь Очистить


    x

    0


    +
    -

    +
    -

    -

    Авторизация





    Зарегистрироваться

    M

    Дата и время

    • 23:21:16
       

    Социальные ссылки


    Наши приложения

    • Muzbank App Play Market
    • Muzbank Amazon App