MUZBANK



A Most Complete Bank Of Music Information

МУЗЫКАЛЬНО-ИНФОРМАЦИОННЫЙ БАНК

Поиск по сайту







    FFoo Fighters • Down In The Park (аккорды и текст - chords & lyrics)


    251

    Print

    Видео «Down In The Park (Foo Fighters)»

    Видео клипы к песне подбираются автоматически сайтом youtube. Возможны некоторые несоответствия клипов песне.

    ↑ Спрятать рекламу ↑



    Download


     
    
    
    1st Verse (w/delay)
    e|------------------------------------------|
    B|------------------------------------------|
    G|--4--6----------4--6-------------6-----4--|
    D|--------7-------------6-------6-----6-----|
    A|-----------7------------------------------|
    E|------------------------------------------|
                                 PM|----------|
    
    Bridge
    (Gtr. 1)    
    e|----------------------------|-----------------------------|
    B|----------------------------|-----------------------------|
    G|--6-------------------------|-4---------------------------|
    D|--7-let-ring----------------|-5-let-ring------------------|
    A|--7-------------------------|-5---------------------------|
    E|--5-------------------------|-3---------------------------|
    
    e|----------------------------------------------------------|
    B|----------------------------------------------------------|
    G|--1-----------1--------------1----------------------------|
    D|--2-----------2--------------2-----------2-2-2-2-2-2-2-2--|
    A|--2-----------2--------------2-----------2-2-2-2-2-2-2-2--|
    E|--0-----------0--------------0-----------0-0-0-0-0-0-0-0--|
    
    (Gtr. 2)
    e|----------------------------|-----------------------------|
    B|----------------------------|-----------------------------|
    G|--7h9-9-7p6-7p6-7h9-9-7-7-6-|--5p4--5p4-5p4-4h5-5-5-4-----|
    D|----------------------------|-----------------------------|
    A|----------------------------|-----------------------------|
    E|----------------------------|-----------------------------|
    
    e|--2--0----------2---0-------4--0--------------------------|
    B|----------0-------------0---------0-----------------------|
    G|----------------------------------------------------------|
    D|-----------------------------------------2-2-2-2-2-2-2-2--|
    A|-----------------------------------------2-2-2-2-2-2-2-2--|
    E|-----------------------------------------0-0-0-0-0-0-0-0--|
    
    
    2nd Verse (w/palm-muting throughout)
    e|-----------------------------------------------------|
    B|-----------------------------------------------------|
    G|--4-4-4-4-4-4-4-4--6-6-6-6-6-6-6-6-------------------|
    D|--4-4-4-4-4-4-4-4--6-6-6-6-6-6-6-6--7-7-7-7-7-7-7-7--|
    A|--2-2-2-2-2-2-2-2--4-4-4-4-4-4-4-4--7-7-7-7-7-7-7-7--|
    E|------------------------------------5-5-5-5-5-5-5-5--|
    
    e|-----------------------------------------------------|
    B|-----------------------------------------------------|
    G|-------------------4-4-4-4-4-4-4-4--6-6-6-6-6-6-6-6--|
    D|--2-2-2-2-2-2-2-2--4-4-4-4-4-4-4-4--6-6-6-6-6-6-6-6--|
    A|--2-2-2-2-2-2-2-2--2-2-2-2-2-2-2-2--4-4-4-4-4-4-4-4--|
    E|--0-0-0-0-0-0-0-0------------------------------------|
    
    e|-----------------------------------------------------|
    B|-----------------------------------------------------|
    G|-----------------------------------------------------|
    D|--6-6-6-6-6-6-6-6-6-6-6-6-6-6-6-6--------------------|
    A|--6-6-6-6-6-6-6-6-6-6-6-6-6-6-6-6--------------------|
    E|--4-4-4-4-4-4-4-4-4-4-4-4-4-4-4-4--------------------|
    
    
    [2nd bridge is the same]
    
    
    3rd Verse
    e|-----------------------------------------------------|
    B|--4-4-4-4-4-4-4-4--6-6-6-6-6-6-6-6-------------------|
    G|--4-4-4-4-4-4-4-4--6-6-6-6-6-6-6-6--6-6-6-6-6-6-6-6--|
    D|--4-4-4-4-4-4-4-4--6-6-6-6-6-6-6-6--7-7-7-7-7-7-7-7--|
    A|--2-2-2-2-2-2-2-2--4-4-4-4-4-4-4-4--7-7-7-7-7-7-7-7--|
    E|------------------------------------5-5-5-5-5-5-5-5--|
    
    e|-----------------------------------------------------|
    B|-------------------4-4-4-4-4-4-4-4--6-6-6-6-6-6-6-6--|
    G|--1-1-1-1-1-1-1-1--4-4-4-4-4-4-4-4--6-6-6-6-6-6-6-6--|
    D|--2-2-2-2-2-2-2-2--4-4-4-4-4-4-4-4--6-6-6-6-6-6-6-6--|
    A|--2-2-2-2-2-2-2-2--2-2-2-2-2-2-2-2--4-4-4-4-4-4-4-4--|
    E|--0-0-0-0-0-0-0-0------------------------------------|
    
    e|-----------------------------------------------------|
    B|-----------------------------------------------------|
    G|--5-5-5-5-5-5-5-5-5-5-5-5-5-5-5-5--------------------|
    D|--6-6-6-6-6-6-6-6-6-6-6-6-6-6-6-6--------------------|
    A|--6-6-6-6-6-6-6-6-6-6-6-6-6-6-6-6--------------------|
    E|--4-4-4-4-4-4-4-4-4-4-4-4-4-4-4-4--------------------|
     

    Тональность:

    Нет текста!



    Назад
    Рекомендуем посмотреть другие песни исполнителя «Foo Fighters»:

    • Комментарии Facebook ()
    • Комментарии ВКонтакте



    Добавить в Избранное Браузера
    Сохранить здесь Очистить


    x

    0


    +
    -

    +
    -

    -

    Авторизация





    Зарегистрироваться

    M

    Дата и время

    • 11:15:35
       

    Социальные ссылки


    Наши приложения

    • Muzbank App Play Market
    • Muzbank Amazon App