MUZBANK



A MOST COMPLETE BANK OF MUSIC INFORMATION

МУЗЫКАЛЬНО-ИНФОРМАЦИОННЫЙ БАНК







    FFoo Fighters • Iron And Stone (аккорды и текст - chords & lyrics)


    290

    Print

    Видео «Iron And Stone (Foo Fighters)»

    Видео клипы к песне подбираются автоматически сайтом youtube. Возможны некоторые несоответствия клипов песне.

    ↑ Спрятать рекламу ↑





     
    
    
    foo fighters
    iron and stone
    submitted by m. burgess
    
    
    Intro
    e|-------------------------------------------------------------|
    B|-------------12-------------12-------------12-------------12-|
    G|-11h12p11h12----11h12p11h12----11h12p11h12----11h12p11h12----|
    D|-------------------------------------------------------------|
    A|-------------------------------------------------------------|
    E|-------------------------------------------------------------|
    
    e|-------------------------------------------------------------|
    B|-------------11-------------11-------------11-------------11-|
    G|-11h12p11h12----11h12p11h12----11h12p11h12----11h12p11h12----|
    D|-------------------------------------------------------------|
    A|-------------------------------------------------------------|
    E|-------------------------------------------------------------|
    
    e|-------------------------------------------------------------|
    B|-12-12-12-12-12-12-12-12-12-12-11-11-11-11-11-11-11-11-11-11-|
    G|-12-12-12-12-12-12-12-12-12-12-11-11-11-11-11-11-11-11-11-11-|
    D|-------------------------------------------------------------|
    A|-------------------------------------------------------------|
    E|-------------------------------------------------------------|
    
    
    Verse
    e||-----------------------------||
    B||-----------------------------||
    G||--7/9-x-1211-----7/9-x-76--||
    D||--7/9-x-1211-----7/9-x-76--||
    A||--5/7-x-109------5/7-x-54--||
    E||--5/7---109------5/7---54--||
    
    
    Chorus
    e||----------------------------||
    B||----------------------------||
    G||--7/9-9-9----------5-7-7-7--||
    D||--7/9-9-9--5-7-5---5-7-7-7--||
    A||--5/7-7-7--5-7-5---3-5-5-5--||
    E||-----------3-5-3------------||
    
    
    Bridge
    e||-----------------------------||
    B||-----------------------------||
    G||-----------------------------||
    D||-----------------------------||
    A||------------------5----------||
    E||--0-0-0-3-5-5-5-5---7-6-5-3--||
    
    
    Solo
    e||----------------7-7-6-6-----------6h7p6h7-------6h7p6h7--||
    B||--(7)-8--7h8p7h8-------6-6-6h7p6h7-------6h7p6h7---------||
    G||---------------------------------------------------------||
    A||---------------------------------------------------------||
    E||---------------------------------------------------------||
     

    Тональность:

    Это должно быть в ТОП-листе! - Топ-лист композиций



    Назад
    Рекомендуем посмотреть другие песни исполнителя «Foo Fighters»:

    • Комменты Fb ()
    • Комменты ВК



    Добавить в Избранное Браузера
    Сохранить здесь Очистить


    x

    0


    +
    -

    +
    -

    -

    Авторизация





    Зарегистрироваться

    M

    Дата и время

    • 12:52:36
       

    Социальные ссылки


    Наши приложения

    • Muzbank App Play Market
    • Muzbank Amazon App