MUZBANK



A Most Complete Bank Of Music Information

МУЗЫКАЛЬНО-ИНФОРМАЦИОННЫЙ БАНК

Поиск по сайту







    FFor Amusement Only • Believe (аккорды и текст - chords & lyrics)


    218

    Print

    Видео «Believe (For Amusement Only)»

    Видео клипы к песне подбираются автоматически сайтом youtube. Возможны некоторые несоответствия клипов песне.

    ↑ Спрятать рекламу ↑



    Download


     
    
    
    Bransden69@hotmail.com
     
     + - mute
     x - scratch
       
       |--------------------|
       |--------------------|
       |-77xx---------------|
       |-77xx77xx55xx5577x--|
       |-55xx77xx55xx5577x--|(x2)
       |-----55xx33xx3355x--|
    
       |-----------------|
       |-----------------|
       |-77--------------|
       |-77-77-55---57---|
       |-55-77-55---57---|(x2)
       |----55-33---35---|
         
                                  
       |--------------------|      |------------------------|
       |--------------------|      |------------------------|
       |-77xx---------------|      |-77xx-------------------|
       |-77xx77xx55xx5577x--|      |-77xx77xx55~--555555555-|
       |-55xx77xx55xx5577x--|(x2)  |-55xx77xx55~--555555555-|
       |-----55xx33xx3355x--|      |-----55xx33~--333333333-|
                                                  +++++
      (chorus)
       |-------------------------|
       |-------------------------|
       |-7-----------------------|
       |-7(x8)-7-----9-----5-----|
       |-5-----7(x8)-9(x8)-5(x8)-|
       |-------5-----7-----3-----|
    
       |----------------------------------------------------------------|
       |----10--8--7--------7--7--8--7--------10--8--7--------8--7------|
       |-7------------9--9--------------7--7------------9--9--------9-7-|
       |----------------------------------------------------------------|
       |----------------------------------------------------------------|
       |----------------------------------------------------------------|
     

    Тональность:

    Нет текста!



    Назад
    Рекомендуем посмотреть другие песни исполнителя «For Amusement Only»:

    • Комментарии Facebook ()
    • Комментарии ВКонтакте



    Добавить в Избранное Браузера
    Сохранить здесь Очистить


    x

    0


    +
    -

    +
    -

    -

    Авторизация





    Зарегистрироваться

    M

    Дата и время

    • 13:34:20
       

    Социальные ссылки


    Наши приложения

    • Muzbank App Play Market
    • Muzbank Amazon App