MUZBANK



A Most Complete Bank Of Music Information

МУЗЫКАЛЬНО-ИНФОРМАЦИОННЫЙ БАНК

Поиск по сайту







    FFountains Of Wayne • Stacys Mom (аккорды и текст - chords & lyrics)


    230

    Print

    Видео «Stacys Mom (Fountains Of Wayne)»

    Видео клипы к песне подбираются автоматически сайтом youtube. Возможны некоторые несоответствия клипов песне.

    ↑ Спрятать рекламу ↑



    Download



     
    
    
    verse:
    -----------
    -----------    
    -----------
    0--5--7--5-
    
    prechorus:
    ------------------------------
    ------------------------------
    ------------------------------
    44444444555555554444444455555-
    
    chorus
    --------------------------------------------------------
    --------------------------------------------------------
    ----2--2--4-----------2--2--4-------33334---------------
    5-0---4--4----5-0---4---4-------5-0---------55555-77777-
    
    
    solo:
    ----------------------------------
    ----------------------------------
    ----5--5--7---------------5--5--7-
    8-3---7--7---8-3-7~~~~8-3---7--7--
    
    thats all i got right now... im trying to figure out how the ending goes, I
    should get that figured out soon enough... hope u enjoy it.  dont be afraid
    to tell me if u see something wrong.
     

    Тональность:

    Нет текста!



    Назад
    Рекомендуем посмотреть другие песни исполнителя «Fountains Of Wayne»:

    • Комментарии Facebook ()
    • Комментарии ВКонтакте



    Добавить в Избранное Браузера
    Сохранить здесь Очистить


    x

    0


    +
    -

    +
    -

    -

    Авторизация





    Зарегистрироваться

    M

    Дата и время

    • 13:14:58
       

    Социальные ссылки


    Наши приложения

    • Muzbank App Play Market
    • Muzbank Amazon App