MUZBANK



A Most Complete Bank Of Music Information

МУЗЫКАЛЬНО-ИНФОРМАЦИОННЫЙ БАНК

Поиск по сайту







    FFrankenstein Drag Queens From The Planet 13 • I Lo (аккорды и текст - chords & lyrics)


    208

    Print

    Видео «I Lo (Frankenstein Drag Queens From The Planet 13)»

    Видео клипы к песне подбираются автоматически сайтом youtube. Возможны некоторые несоответствия клипов песне.

    ↑ Спрятать рекламу ↑



    Download


     
    
    
    jordison800@hotmail.com-tabber
    
    Intro:
    
    e|-----------|
    B|-----------|
    G|-----------|
    D|-9-9-9-9-9-| x1
    A|-9-9-9-9-9-|
    E|-7-7-7-7-7-|
    
    
    Main Riff/ Verse:
    
    e|---------------------------------|
    B|---------------------------------|
    G|---------------------------------|
    D|-2-2-2-2-5-5-5-5-2-2-------------|
    A|-2-2-2-2-5-5-5-5-2-2-------------| x13 (theres a couple of pick slides in 
    E|-0-0-0-0-3-3-3-3-0-0-3-3-3-3-3-3-|      there at the intro too)
                          ||
                         Natural Harmonics
    
    
    Pre-chorus riff:
    
    e|---------------------------------|
    B|---------------------------------|
    G|---------------------------------|
    D|-2-2-2-2-5-5-5-5-2-2-4-4-5-5-6-6-|
    A|-2-2-2-2-5-5-5-5-2-2-4-4-5-5-6-6-| x1
    E|-0-0-0-0-3-3-3-3-0-0-2-2-3-3-4-4-|
    
    
    Chorus:
    
    Guitar 1:
    
    e|---------------------------------|
    B|---------------------------------|
    G|---------------------------------|
    D|-7~~-----------------------------|
    A|-7~~-----------------------------|
    E|-5~~-----------------------------|
    
    Guitar 2:
    
    e|---------------------------------|
    B|---------------------------------|
    G|---------------------------------|
    D|-7~~~~~--------------------------|
    A|---------------------------------|
    E|---------------------------------|
       
    
    Guitar 1:
    
    e|---------------------------------|
    B|---------------------------------|
    G|---------------------------------|
    D|-2~~-----------------------------|
    A|-2~~-----------------------------|
    E|-0~~-----------------------------|
    
    Guitar 2:
    
    e|---------------------------------|
    B|---------------------------------|
    G|---------------------------------|
    D|-2~~~~~--------------------------|
    A|---------------------------------|
    E|---------------------------------|
       
    
    Guitar 1:
    
    e|---------------------------------|
    B|---------------------------------|
    G|---------------------------------|
    D|-7~~-----------------------------|
    A|-7~~-----------------------------|
    E|-5~~-----------------------------|
    
    Guitar 2:
    
    e|---------------------------------|
    B|---------------------------------|
    G|---------------------------------|
    D|-7~~~~~--------------------------|
    A|---------------------------------|
    E|---------------------------------|
       
    
    Guitar 1:
    
    e|---------------------------------|
    B|---------------------------------|
    G|---------------------------------|
    D|-9~~-----------------------------|
    A|-9~~-----------------------------|
    E|-7~~-----------------------------|
    
    Guitar 2:
    
    e|---------------------------------|
    B|---------------------------------|
    G|---------------------------------|
    D|-9~~~~~--------------------------|
    A|---------------------------------|
    E|---------------------------------|
      
    
    Then:
    
    Main Riff/Verse x13
    
    Pre-Chorus Riff x1
    
    Chorus
    
    Main Riff/Verse x4
    
    Solo:  (other guitar plays Main Riff/Verse behind solo)
    
    e|--------------------------------------------------------------|
    B|--------------------------------------------------------------|
    G|-14b16-16-14b16-16-14-16-14b16(gradual)-16-16-16-16r14-12-----|
    D|----------------------------------------------------------14~-| x2
    A|--------------------------------------------------------------|
    E|--------------------------------------------------------------|
    
    e|--------------------------------------------------------------|
    B|-------------------12----12----12-12-12-12-12-12--------------|
    G|-14b16(gradual)-14b16-14b16-14b16-16-16-16-16-16-16-16-16r14--|
    D|--------------------------------------------------------------|
    A|--------------------------------------------------------------|
    E|--------------------------------------------------------------|
    
    Bass only, then:
    
    e|---------------------------------|
    B|---------------------------------|
    G|---------------------------------|
    D|---------------------------------|
    A|---------------------------------| x9
    E|-0-0-0-0-3-3-3-3-0-0-------------|
     ||
           Palm Mute
    
    Then:
    
    Pre-Chorus Riff x1
    
    Chorus
    
    Main Riff/Verse x4
    
    
    Finally,:
    
    Guitar 1:			Guitar 2:
    
    e|-----------------|		e|---------------------|
    B|-----------------|		B|---------------------|
    G|-----------------|		G|-14b16(picked rapid)-|
    D|-2-2-2-2-5-7-7-5-| x25	D|---------------------|
    A|-2-2-2-2-5-7-7-5-|		A|---------------------|
    E|-0-0-0-0-3-5-5-3-|		E|---------------------|
    
    
    Both guitars:
    
    e|--------------|
    B|--------------|
    G|--------------|
    D|-2~~~---------|
    A|-2~~~---------|
    E|-0~~~---------|
    
    
    end with the intro x1
     

    Тональность:

    Нет текста!



    Назад
    Рекомендуем посмотреть другие песни исполнителя «Frankenstein Drag Queens From The Planet 13»:

    • Комментарии Facebook ()
    • Комментарии ВКонтакте



    Добавить в Избранное Браузера
    Сохранить здесь Очистить


    x

    0


    +
    -

    +
    -

    -

    Авторизация





    Зарегистрироваться

    M

    Дата и время

    • 07:40:13
       

    Социальные ссылки


    Наши приложения

    • Muzbank App Play Market
    • Muzbank Amazon App