MUZBANK



A Most Complete Bank Of Music Information

МУЗЫКАЛЬНО-ИНФОРМАЦИОННЫЙ БАНК

Поиск по сайту







    FFrom Autumn To Ashes • Take Her To The Music Store (аккорды и текст - chords & lyrics)


    257

    Print

    Видео «Take Her To The Music Store (From Autumn To Ashes)»

    Видео клипы к песне подбираются автоматически сайтом youtube. Возможны некоторые несоответствия клипов песне.

    ↑ Спрятать рекламу ↑



    Download



     
    
    
    song: Take Her To The Music Store 
    artist:Fom Autumn To Ashes 
    album:To Bad Your Beautiful 
    tabbed by: goth_man_mat
    
    bass tuning: standard (E,A,D,G)
    
    @:......................play a lot
    ~:......................hold note
    h:......................hammer on 
    
    Intro
    G:-----------------------:|
    D:-----------------------:|
    A:--7-73-3-3-3/5-5---:|
    E:-----------------------:|
    
    Pre- Verse 
    G:-----------------------:|
    D:-----------------------:|
    A:--7-7-7-7-73-3-3-3-3-3-3-3-3-3/5-5-5-5-5--:|
    E:-----------------------:|
    
    Verse
    G:-----------------------:|
    D:-----------------------:|
    A:--5-5-5-5-3-3-3-3-3-3-3-3-3-5-5-5-5-10-10-12-12-12-12-10-10-10-9-9-9--:|
    E:-----------------------:|
    
    G:-----------------------:|
    D:-----------------------:|     {Play this after} 
    A:-----------------------:|
    E:--0-@---------------:|
    
    Chorus 
    G:-----------------------:|
    D:-----------------------:|      {first time guitar only}
    A:--7h9-10-9-7-5h79-10-9-3h7-9-10-9--:| 
    E:-----------------------:|
    
    G:-----------------------:|
    D:-----------------------:|      
    A:-----------------------:|
    E:--0@-----------------:|
    
    G:-----------------------:|    -------------------------------------|
    D:-----------------------:|                                                 |
    A:------10-10-10-10-9-9-9-9-7-7-7-7-9-9-9-9--:|             | 
    E:--0@-----------------:|			 |
    				                 |
    G:-----------------------:|                                                 |  {x2}
    D:-----------------------:|      		                 |
    A:------7-7-7-7-5-5-5-5-3-3-3-3-5-5-5-5--:|                    |
    E:--0@-----------------:|			 |
    		     -------------------------------------|
    G:-----------------------:|
    D:-----------------------:| 
    A:-----------------------:|
    E:--0~-----------------:|
    
    G:------------------------:|
    D:------------------------:|      {x4}
    A:--35-5/7h9-10-9-5--:|
    E:------------------------:|
    
    G:-----------------------:|
    D:-----------------------:|      
    A:-----------------------:|
    E:--0@-----------------:|
    
    G:-----------------------:|
    D:-----------------------:| 
    A:--7-9-7-5-7-5-3-5-3-2--:|
    E:------------------------:|
    
    G:-------------|--------:|
    D:-------------|--------:|      {x4}    {hold the 4th time 
    A:------3-3----|---3~-------:|
    E:--0----------|---------:|
    
    G:-------------------------:|
    D:-------------------------:|      {x8}     
    A:-----------------3-3-3-3-3-3--:|
    E:--0-0-0-0-0-0---------:|
    
    G:--------:|
    D:--------:|      {end with this}
    A:--------:|
    E:--0@--:|          
    
                                 thats it
          it is a sweet song and it is easy to play and mosh to. 
                                ROCK ON!!!
     

    Тональность:

    Нет текста!



    Назад
    Рекомендуем посмотреть другие песни исполнителя «From Autumn To Ashes»:

    • Комментарии Facebook ()
    • Комментарии ВКонтакте



    Добавить в Избранное Браузера
    Сохранить здесь Очистить


    x

    0


    +
    -

    +
    -

    -

    Авторизация





    Зарегистрироваться

    M

    Дата и время

    • 18:33:53
       

    Социальные ссылки


    Наши приложения

    • Muzbank App Play Market
    • Muzbank Amazon App