MUZBANK



A MOST COMPLETE BANK OF MUSIC INFORMATION

МУЗЫКАЛЬНО-ИНФОРМАЦИОННЫЙ БАНК







    FFrom Autumn To Ashes • The After Dinner Payback (аккорды и текст - chords & lyrics)


    383

    Print

    Видео «The After Dinner Payback (From Autumn To Ashes)»

    Видео клипы к песне подбираются автоматически сайтом youtube. Возможны некоторые несоответствия клипов песне.

    ↑ Спрятать рекламу ↑






     
    
    
    The After Dinner Payback
    From Autumn to Ashes
    
    Tuning - B F# B E G# C# Low to High (Drop B, 2 1/2 steps down)
    
    Intro
    Guitar 1    Fig. 1
    |----------------------------|
    |------10-11---10-11---10-9--|
    |----0-------0-------0-------|
    |----------------------------| 4X
    |----------------------------|
    |----------------------------|
    |                            |
    |Guitar 2                    |
    |----------------------------|
    |----------------------------|
    |----------------------------|
    |-5--------------------------|
    |-5--------------------------|
    |-5--------------------------|
    
    Verse: 
    Guitar 2
    |--------------------------------|
    |--------------------------------|
    |--------------------------------|
    |-5-5-5-5---------5-5-5-5--------|
    |-5-5-5-5---------5-5-5-5--------|
    |-5-5-5-5--55555--5-5-5-5-55555--|
    
    |--------------------------------|
    |--------------------------------|
    |--------------------------------|
    |-1-1-1-1---------1-1-1-1--------|
    |-1-1-1-1---------1-1-1-1--------|
    |-1-1-1-1--11111--1-1-1-1-11111--|
    
    Fill over guitar 2, 2nd time only
    |--------------------------------------------------|
    |------10-11---10-11---10-9---10-11---10-11---10-9-|
    |----0-------0-------0------0------0--------0------|
    |--------------------------------------------------|
    |--------------------------------------------------|
    |--------------------------------------------------|
    
    |----------------------------------------|
    |------4-6---6-8---3-5---4-6---6-8---3-5-|
    |----0-----0-----0-----0-----0-----0-----|
    |----------------------------------------|
    |----------------------------------------|
    
    Chorus:
    Both guitars
    |--------------------------------------|
    |--------------------------------------|
    |.------------------------------------.| 3.5X
    |.-10-8-7-8p7-8p7-8p7-----8p7-8p7-----.|
    |---------------------10----------10---|
    |--------------------------------------|
    
    |---------------------------------------------------------|
    |---------------------------------------------------------|
    |.-10-8-7-------10-8-7--------10-8-7h8-------------------.| 3.5X
    |.--------8~~~~~-------10~~~~~---------8-8-8-8-8-8-8-8-8-.|
    |---------------------------------------------------------|
    |---------------------------------------------------------|
    
    |-----------------------------------------|
    |-----------------------------------------|
    |.--7----5----3----2----0----2----3----2-.|
    |.--8----7----5----3----1----3----5----3-.|
    |-----------------------------------------|
    |-----------------------------------------|
    
    This is the whole song, it is in order untill after the chorus, but every part is listed
    just listen to the song
     

    Тональность:

    Это должно быть в ТОП-листе! - Топ-лист композиций



    Назад
    Рекомендуем посмотреть другие песни исполнителя «From Autumn To Ashes»:

    • Комменты Fb ()
    • Комменты ВК



    Добавить в Избранное Браузера
    Сохранить здесь Очистить


    x

    0


    +
    -

    +
    -

    -

    Авторизация





    Зарегистрироваться

    M

    Дата и время

    • 19:48:42
       

    Социальные ссылки


    Наши приложения

    • Muzbank App Play Market
    • Muzbank Amazon App