MUZBANK



A Most Complete Bank Of Music Information

МУЗЫКАЛЬНО-ИНФОРМАЦИОННЫЙ БАНК

Поиск по сайту







    FFrom Autumn To Ashes • The After Dinner Payback (аккорды и текст - chords & lyrics)


    227

    Print

    Видео «The After Dinner Payback (From Autumn To Ashes)»

    Видео клипы к песне подбираются автоматически сайтом youtube. Возможны некоторые несоответствия клипов песне.

    ↑ Спрятать рекламу ↑



    Download



     
    
    
    By: Nouwsh -> Nouwsh@hotmail.com
    
    Please mail me if there is something wrong or if you know the complete tab.
    
    x = palm muted
    / = slide
    
    (Intro)
    |----2-3--3--3-2-0----2-3---2---3-2-0------------------------------|
    |---x----x--x--------x-----x---x-----------------------------------|
    |------------------------------------------------------------------|2X
    |--2---------------------------------------------------------------|
    |--2---------------------------------------------------------------|
    |--0---------------------------------------------------------------|
    
    (verse) (guitar 1)
    |-------------------------------------------------------------------|
    |-------------------------------------------------------------------|
    |-------------------------------------------------------------------|
    |-1111-1111--------1111-1111-------------77-77---------77-77--------|2X
    |-9-9--9-9--000000-9-9--9-9--7-7-7-7-7-7-55-55--000000-55-55-0-0-0-0|
    |-7-7--7-7--000000-7-7--7-7--5-5-5-5-5-5-33-33--000000-33-33-0-0-0-0|
                xxxxxx           x x x x x x        xxxxxx       x x x x 
    
    (verse) (guitar 2) (im not wishing anymore...)
    |------------------------------------------------------------------|
    |---7-8--7---8-7----7-8---7--8-7----3-5--3--5-3---3-5--3--5-3------|
    |----------------9---------------9--------------5------------5-----|
    |-9-----9---9------9----9---9------5---5---5-----5---5--5----------|
    |------------------------------------------------------------------|
    |------------------------------------------------------------------|
    
    (verse) (guitar 1) (this is because of you i dont believe...)
    |-------------------------------------------------------------------|
    |-------------------------------------------------------------------|
    |-------------------------------------------------------------------|
    |-1111-1111--------1111-1111-------------77-77---------77-77--------|
    |-9-9--9-9--000000-9-9--9-9--7-7-7-7-7-7-55-55--000000-55-55-0-0-0-0|
    |-7-7--7-7--000000-7-7--7-7--5-5-5-5-5-5-33-33--000000-33-33-0-0-0-0|
                xxxxxx           x x x x x x        xxxxxx       x x x x
    
    ( 

    Тональность:

    Нет текста!



    Назад
    Рекомендуем посмотреть другие песни исполнителя «From Autumn To Ashes»:

    • Комментарии Facebook ()
    • Комментарии ВКонтакте



    Добавить в Избранное Браузера
    Сохранить здесь Очистить


    x

    0


    +
    -

    +
    -

    -

    Авторизация





    Зарегистрироваться

    M

    Дата и время

    • 23:26:33
       

    Социальные ссылки


    Наши приложения

    • Muzbank App Play Market
    • Muzbank Amazon App