MUZBANK



A MOST COMPLETE BANK OF MUSIC INFORMATION

МУЗЫКАЛЬНО-ИНФОРМАЦИОННЫЙ БАНК







    FFuel • Hemorrhage (аккорды и текст - chords & lyrics)


    433

    Print

    Видео «Hemorrhage (Fuel)»

    Видео клипы к песне подбираются автоматически сайтом youtube. Возможны некоторые несоответствия клипов песне.

    ↑ Спрятать рекламу ↑





     
    
    
    Artist: Fuel
    Song: Hemorrhage (In My Hands)
    Album: Something Like Human
    
    I had to redo this tab.  I found some errors in the last
    tab and decided to start over from scratch.
    
    To start off the song is played in open Eb tuning, but
    since it is easier to just tune down the first string
    I tabed it for dropped Eb tuning.
    
    Eb, A, D, G
    
    
    INTRO:
    G----------------------
    D----------------------
    A---1--1--------------- 
    Eb---------5-5--5--0---
    
    
    CHORUS:
    G------------------------------
    D------------------------------
    A-------1-3-4--4---------------
    Eb--3-3-----------5--5--2--2-2-
    
    G--------------------------
    D--------------------------
    A--------1-3-4--4----------
    Eb--3-3------------2-2-2-2-
    
    
    VERSE:
    G---------------------------
    D---------------------------
    A--1--1-----------------3-4-
    Eb-------5--5--3--3--5------       x2
    
    G----------------------
    D----------------------
    A--1--1----------------
    Eb-------5--5--3--3--5-            x4
    
    
    PRE-CHORUS:
    G-------------------------------------------
    D-------------------------------------------
    A-------------4--4-4--4-4--------4--3--1----
    Eb--3-2-0--0---------------5--5-----------5-
    
    G---------------------------------------
    D---------------------------------------
    A---------4--4-4--4-4-------------------
    Eb--0--0---------------5--5--2-2--2-2-2-
    
    
    CHORUS:
    G----------------------------------
    D----------------------------------
    A-------1-3-4--4h6p4---------------
    Eb--3-3---------------5--5--2--2-2-
    
    G-----------------------------
    D-----------------------------
    A-------1-3-4--4h6p4----------
    Eb--3-3---------------2-2-2-2-
    
    
    BRIDGE:
    G-------------------------------------
    D-------------------------------------
    A-------------1111---1111-3333-4444-3-
    Eb--3333-5555------5------------------
    
    G-------------------------------
    D-------------------------------
    A---4444-6666-8888--------------
    Eb-----------------0--2-2-2--2~-
    
    
    SOLO:
    G---------------------------
    D---------------------------
    A--1--1-----------------3-4-
    Eb-------5--5--3--3--5------       x4
    
    
    BUILD-UP:
    G-------------------------------------
    D-------------------------------------
    A--1-111111-33333333-4444-6666-8888-
    Eb------------------------------------
    
    
    PRE-CHORUS:
    G-------------------------------------------
    D-------------------------------------------
    A-------------4--4-4--4-4--------4--3--1----
    Eb--3-2-0--0---------------5--5-----------5-
    
    G---------------------------------------
    D---------------------------------------
    A---------4--4-4--4-4-------------------
    Eb--0--0---------------5--5--2-2--2-2-2-
    
    
    CHORUS:
    G----------------------------------
    D----------------------------------
    A-------1-3-4--4h6p4---------------
    Eb--3-3---------------5--5--2--2-2-
    
    G------------------------------------------
    D------------------------------------------
    A-------1-3-4--4-6p4p1---------------------
    Eb--3-3-----------------5--5-7p5p3--2--2-2-     x5
    
    
    OUTRO:
    G--------------
    D--------------
    A------4-4-----
    Eb--3-------5~-
    
    
    This is 99.9% correct.  I spent over two hours perfecting it.
    If you find any mistakes please e-mail me.  balkan@2z.net.
    
    Dan
     

    Тональность:

    Это должно быть в ТОП-листе! - Топ-лист композиций



    Назад
    Рекомендуем посмотреть другие песни исполнителя «Fuel»:

    • Комменты Fb ()
    • Комменты ВК



    Добавить в Избранное Браузера
    Сохранить здесь Очистить


    x

    0


    +
    -

    +
    -

    -

    Авторизация





    Зарегистрироваться

    M

    Дата и время

    • 01:44:44
       

    Социальные ссылки


    Наши приложения

    • Muzbank App Play Market
    • Muzbank Amazon App