MUZBANK



A Most Complete Bank Of Music Information

МУЗЫКАЛЬНО-ИНФОРМАЦИОННЫЙ БАНК

Поиск по сайту







    FFuel • Last Time (аккорды и текст - chords & lyrics)


    282

    Print

    Видео «Last Time (Fuel)»

    Видео клипы к песне подбираются автоматически сайтом youtube. Возможны некоторые несоответствия клипов песне.

    ↑ Спрятать рекламу ↑



    Download



     
    
    
    By Mark Wisneski
    
    Played in drob D
    Key-- * = palm mute
    ^ = bend
    You will have to figure out how it goes because I was way to fricken lazy
    -------------------------------------------
    -------------------------------------------
    -------------------------------------------
    -9-9-9-9-9--12-12-12-12-12---------- 4x beginning
    -9-9-9-9-9--12-12-12-12-12----------
    -9-9-9-9-9--12-12-12-12-12----------
    
    G----11^--11^--11^--11^-------------only the second time in the beginning with a different guitar
    
    -------------------------------------------
    -------------------------------------------
    -------------------------------------------
    -9---------12----------2-2-2-2-2-2-2-2-2-2-verse
    -9---------12---5x-----2-2-2-2-2-2-2-2-2-2-
    -9---------12----------2-2-2-2-2-2-2-2-2-2-
    
    ------------------------------------
    ------------------------------------
    ------------------------------------
    -12-12-12-12-12--9-9-9-9-9----------2x
    -12-12-12-12-12--9-9-9-9-9----------
    -12-12-12-12-12--9-9-9-9-9----------
    
    -------------------------------------
    -------------------------------------
    ------------------------------------- Chorus
    -0-4-4-0-4-4-0---4-4-4-0-------------3x
    -0-4-4-0-4-4-0---4-4-4-0-------------
    -0-4-4-0-4-4-0---4-4-4-0-------------
    
    -----------------------------------------
    -----------------------------------------
    -----------5^--3-------------------------
    ----3--6----------6--3-------------------
    -4-----------------------4---------------
    ----------------------------------------- this is played after the first and after the second chorus
    
    -------------------------------------------
    -------------------------------------------
    ----11^-11----11^-11--11^-11-----11^-11----
    -9----------12---------9----------12------- verse 2
    -9----------12---------9----------12-------
    -9----------12---------9----------12-------
    
    
    
    ---------------------------------------
    ---------------------------------------
    ---------------------------------------
    -0-0-0-0-0-0-0-0-0-0-0-0-3--3----------
    -0-0-0-0-0-0-0-0-0-0-0-0-3--3----------
    -0-0-0-0-0-0-0-0-0-0-0-0-3--3----------
    -*-*-*-*-*-*-*-*-*-*-*-* 
    
    e-7^----5-----5-----5-----9^--9-9^--9-9^---12^^^^^---
    B-----------7-----7----------------------------------
    the 12 fret bend is slow
     

    Тональность:

    Нет текста!



    Назад
    Рекомендуем посмотреть другие песни исполнителя «Fuel»:

    • Комментарии Facebook ()
    • Комментарии ВКонтакте



    Добавить в Избранное Браузера
    Сохранить здесь Очистить


    x

    0


    +
    -

    +
    -

    -

    Авторизация





    Зарегистрироваться

    M

    Дата и время

    • 09:19:05
       

    Социальные ссылки


    Наши приложения

    • Muzbank App Play Market
    • Muzbank Amazon App