MUZBANK



A Most Complete Bank Of Music Information

МУЗЫКАЛЬНО-ИНФОРМАЦИОННЫЙ БАНК

Поиск по сайту







    FFugees • Killing Me Softly (аккорды и текст - chords & lyrics)


    712

    Print

    Видео «Killing Me Softly (Fugees)»

    Видео клипы к песне подбираются автоматически сайтом youtube. Возможны некоторые несоответствия клипов песне.

    ↑ Спрятать рекламу ↑



    Download


     
    
    
    Tabs:
    
    Parts:
    
    6-str. Guitar
    E-0-1-3-5--3-----3-|-5--3--1--0--1----|-0-1-3-5-3-5-7-7-8-7-5-3-5-|-8-5-1-0----0--1------
    B-------------3---------1-----------------|----------3-----------
    G----------------------------------------------------
    D----------------------------------------------------
    A----------------------------------------------------
    E----------------------------------------------------
    
    6-str. Guitar
    E-3-3-3-4--4--5--7-
    B------------------
    G------------------
    D------------------
    A------------------
    E------------------
    
    Chorus:
    
    6-str. Guitar
    E-8--8--8--5--0--3--1-|-7--7--7--7--3-----0-|-0-0-0-0-5-8-7-5|-10--10-10--8--7--3--7--5---
    B--------------------------3--------------------------
    G-----------------------------------------------------
    D-----------------------------------------------------
    A-----------------------------------------------------
    E-----------------------------------------------------
    
    6-str. Guitar
    E-5--5--5--5--3--0--3--1-1-0-0-0-----|--------0------------------------------------------
    B---------------------------------3--|--3--3---------------------------------------------
    G----------------------------------------------------------------------------
    D----------------------------------------------------------------------------
    A----------------------------------------------------------------------------
    E----------------------------------------------------------------------------
    
                Dm     G
    I heard he sang a good song,
                Dm     F
    I heard he had a style
              G                  Am
    And so I came to see him to listen for a while
    Dm            F        C
    And there he was this young boy
    Cmaj7       E    
    A stranger to my eyes 

    Тональность:

    Нет текста!



    Назад
    Рекомендуем посмотреть другие песни исполнителя «Fugees»:

    • Комментарии Facebook ()
    • Комментарии ВКонтакте



    Добавить в Избранное Браузера
    Сохранить здесь Очистить


    x

    0


    +
    -

    +
    -

    -

    Авторизация





    Зарегистрироваться

    M

    Дата и время

    • 01:22:33
       

    Социальные ссылки


    Наши приложения

    • Muzbank App Play Market
    • Muzbank Amazon App