MUZBANK



A Most Complete Bank Of Music Information

МУЗЫКАЛЬНО-ИНФОРМАЦИОННЫЙ БАНК

Поиск по сайту







    FFuneral For A Friend • The Getaway Plan (аккорды и текст - chords & lyrics)


    239

    Print

    Видео «The Getaway Plan (Funeral For A Friend)»

    Видео клипы к песне подбираются автоматически сайтом youtube. Возможны некоторые несоответствия клипов песне.

    ↑ Спрятать рекламу ↑



    Download


     
    
    
    FUNERAL FOR A FRIEND
    
    THE GETAWAY PLAN
    
    Tabbed by colminblack (roystonvasey1@msn.com)
     
    / = slide up
    
    Intro (0:11)
     E|----------------------------------|----------------------------------|
     B|----------------------------------|----------------------------------|
    F#|----------------------------------|----------------------------------|
    Db|-44444-4444444-4444444-4444444-44-|-44444-4444444-4444444-4444444-44-|
    
    
     E|----------------------------------|----------------------------------|
     B|----------------------------------|----------------------------------|
    F#|----------------------------------|----------------------------------|
    Db|-44444-4444444-4444444-4444444-44-|-44444-4444444-4444444-4444444-44-|
    
    
     E|----------------------------------|---|
     B|----------------------------------|---|
    F#|----------------------------------|---|
    Db|-4HOLD----------4HOLD-------------|-4-|
    
    
    
    VERSE (0:42) x2
     E|----------------------------------|----------------------------------|
     B|----------------------------------|----------------------------------|
    F#|----------------------------------|----------------------------------|
    Db|-2/444---2/444---5-4-5/7777-------|-2/444---2/444---5-4-5/7777-------|
    
    
     E|----------------------------------|----------------------------------|
     B|----------------------------------|----------------------------------| 
    F#|----------------------------------|----------------------------------|
    Db|-2/444---2/444---5-4-5/7777-------|-2/444---2/444---5-4-5/7777-------|
    
    
    
    CHORUS (1:00)
     E|----------------------------------|----------------------------------|
     B|----------------------------------|----------------------------------|
    F#|-5-5--5--5-5--5--7-7--7--9-9--7---|-5-5--5--5-5--5--7-7--7--9-9--7---|
    Db|----------------------------------|----------------------------------|
    
    
     E|----------------------------------|----------------------------------|
     B|----------------------------------|----------------------------------|
    F#|----------------------------------|---------------------------7--9---|
    Db|-4-4--4--4-4--4--4-4--4--4-5--7---|-5-5--5--5-5--5--5-5--5--5--------|
    
    
     E|----------------------------------|----------------------------------|
     B|----------------------------------|----------------------------------|
    F#|-7-7--7--7-7--7--7-7--7--7-9--7---|-2-2--2--2-2--2--3-3--3--3-3------|
    Db|----------------------------------|------------------------------0---|
    
    
                                     
    
     E|----------------------------------|----------------------------------|
     B|----------------------------------|----------------------------------|
    F#|----------------------------------|----------------------------------|
    Db|-4-4--4--4-4--4--4-4--4--4-4--4---|-5-5--5--5-5--5--5-5--5--5-5--5---|
    
    
     E|----------------------------------|----------------------------------|
     B|----------------------------------|----------------------------------|
    F#|-7-7--7--7-7--7--7-7--7--7-7--7---|-2-2--2--2-2--2--3-3--3--3-3------|
    Db|----------------------------------|------------------------------0-4-|
    
    
    
    VERSE (1:47) x2
     E|----------------------------------|----------------------------------|
     B|----------------------------------|----------------------------------|
    F#|----------------------------------|----------------------------------|
    Db|-2/444---2/444---5-4-5/7777-------|-2/444---2/444---5-4-5/7777-------|
    
    
     E|----------------------------------|----------------------------------|
     B|----------------------------------|----------------------------------| 
    F#|----------------------------------|----------------------------------|
    Db|-2/444---2/444---5-4-5/7777-------|-2/444---2/444---5-4-5/7777-------|
    
    
    
    CHORUS (2:06)
     E|----------------------------------|----------------------------------|
     B|----------------------------------|----------------------------------|
    F#|-5-5--5--5-5--5--7-7--7--9-9--7---|----------------------------------|
    Db|----------------------------------|-4-4--4--4-4--4--4-4--4--4-4--4---|
    
    
     E|----------------------------------|----------------------------------|
     B|----------------------------------|----------------------------------|
    F#|----------------------------------|-7-7--7--7-7--7--7-7--7--7-7 

    Тональность:

    Нет текста!



    Назад
    Рекомендуем посмотреть другие песни исполнителя «Funeral For A Friend»:

    • Комментарии Facebook ()
    • Комментарии ВКонтакте



    Добавить в Избранное Браузера
    Сохранить здесь Очистить


    x

    0


    +
    -

    +
    -

    -

    Авторизация





    Зарегистрироваться

    M

    Дата и время

    • 01:02:41
       

    Социальные ссылки


    Наши приложения

    • Muzbank App Play Market
    • Muzbank Amazon App