MUZBANK



A Most Complete Bank Of Music Information

МУЗЫКАЛЬНО-ИНФОРМАЦИОННЫЙ БАНК

Поиск по сайту







    FFuneral For A Friend • This Years Most Open Heartb (аккорды и текст - chords & lyrics)


    288

    Print

    Видео «This Years Most Open Heartb (Funeral For A Friend)»

    Видео клипы к песне подбираются автоматически сайтом youtube. Возможны некоторые несоответствия клипов песне.

    ↑ Спрятать рекламу ↑



    Download



     
    
    
    song: This Years Most Open Heartbreak
    band: Funeral For A Friend
    tabbed by:funeralforafrie
    
    Enjoy :D
    
    Intro (00:13)
    Gb|-------------------------------|
    Db|-------------------------------|
    Ab|-------------------------------| x1
    Db|-0~-------------------------0--|
    
    
    Verse (00:27)
    Gb|-----------------------------------------|
    Db|-----------------------------------------|
    Ab|-----------------------------------------| x4
    Db|-1p0-0-0-1-0-1-0-1p0-0-0-2-2-0-0-2-2-0-0-|
    
    
    Pre-Chorus (00:51)
    Gb|---------------------------|
    Db|---------------------------| 
    Ab|---------------------------| x1
    Db|-8-8--------12-12----10-10-|
    
    
    Chorus (00:56)
    Gb|-----------------------------------------|
    Db|-----------------------------------------|
    Ab|-----------------------------------------| x1
    Db|-8-8-8-8-8-8-8-8-10-10-10-10-10-10-10-10-|
    
    
    Verse (01:06)
    Gb|-----------------------------------------|
    Db|-----------------------------------------|
    Ab|-----------------------------------------| x4
    Db|-1p0-0-0-1-0-1-0-1p0-0-0-2-2-0-0-2-2-0-0-|
    
    
    Chorus (01:25)
    Gb|-----------------------------------------|
    Db|-----------------------------------------|
    Ab|-----------------------------------------| x2
    Db|-8-8-8-8-8-8-8-8-10-10-10-10-10-10-10-10-|
    
    Gb|--------------------------------------------------|
    Db|--------------------------------------------------| 
    Ab|--------------------------------------------------| x2
    Db|-888888888888888810101010101010101010101010101010-|
    
    
    Interlude (01:47)
    Gb|--------------|
    Db|--------------|
    Ab|--------------| x1
    Db|-0-0------0-0-|
    
    Gb|----------------------------------------|
    Db|----------------------------------------|
    Ab|----------------------------------------| x4
    Db|-0-0--0-0--0-0--0-0--0-0--0-0--0-0--0-0-|
    
    
    Pre-Chorus (02:14)
    Gb|---------------------------|
    Db|---------------------------|
    Ab|---------------------------|x1
    Db|-8-8--------12-12----10-10-|
    
    
    Chorus (01:18)
    Gb|-----------------------------------------|
    Db|-----------------------------------------|
    Ab|-----------------------------------------| x2
    Db|-8-8-8-8-8-8-8-8-10-10-10-10-10-10-10-10-|
    
    Gb|--------------------------------------------------|
    Db|--------------------------------------------------|
    Ab|--------------------------------------------------| x2
    Db|-888888888888888810101010101010101010101010101010-|
    
    
    Outro (02:38)
    Gb|-----------------------------|
    Db|-----------------------------| 
    Ab|-----------------------------| x1
    Db|-1p0-0-0-1-0-1-0-1p0-0-0-2-2-|
     

    Тональность:

    Нет текста!



    Назад
    Рекомендуем посмотреть другие песни исполнителя «Funeral For A Friend»:

    • Комментарии Facebook ()
    • Комментарии ВКонтакте



    Добавить в Избранное Браузера
    Сохранить здесь Очистить


    x

    0


    +
    -

    +
    -

    -

    Авторизация





    Зарегистрироваться

    M

    Дата и время

    • 05:28:42
       

    Социальные ссылки


    Наши приложения

    • Muzbank App Play Market
    • Muzbank Amazon App