MUZBANK



A Most Complete Bank Of Music Information

МУЗЫКАЛЬНО-ИНФОРМАЦИОННЫЙ БАНК








    GGang James • Woman (аккорды и текст - chords & lyrics)


    272

    Print

    Видео «Woman (Gang James)»

    Видео клипы к песне подбираются автоматически сайтом youtube. Возможны некоторые несоответствия клипов песне.

    ↑ Спрятать рекламу ↑





     
    
    
    ----------------------------------------------- 
                WOMAN - The James Gang
    -----------------------------------------------
    
    
    INTRO:
    E----------------------------------------------
    B----------------------------------------------
    G----------------------------------------------
    D----------(3x)--------------5-5--5--5--5------
    A--------------------2-3-4-5---x--x--x--x------
    E--2/3-3-3-------2/3-----------3--3--3--3------
    
    
    VERSE:
    E----------------------------------------------
    B-------------------------------------5--------
    G-(light)----------------(strong)-----5--------
    D---------5-5--5--5--5----------------3--------
    A-2-3-4-5---x--x--x--x----2b-3b-4b-5b----------
    E-----------3--3--3--3-------------------------
    
    E----------------------------------------------
    B----------------------------------------------
    G-(light)----------------(light)--5------------
    D---------5-5--5--5--5----5-3-----5-5--5--5----
    A-2-3-4-5---x--x--x--x--------5-3-3-x--x--x----
    E-----------3--3--3--3--------------3--3--3----
    
    E----(strong)----------------------------------
    B----------------------------------------------
    G-------------5---5--3-------------------------
    D-5b-3b-------5---5--3--3-3---5--5--5--5-------
    A-------5b-3b-3---3--1--3-3---x--x--x--x-------
    E-----------------------1-1---3--3--3--3-------
    
    E----------------------------------------------
    B----------------------------------------------
    G----------------------------------------------
    D---------5-5--5--5--5-------------------------
    A-2-3-4-5---x--x--x--x-2-3-4-5-----------------
    E-----------3--3--3--3-------------------------
    
    
    BRIDGE:
    E----------------------------------------------
    B----------------------------------------------
    G--7-7--5--5---7-7--10-------------------------
    D--7-7--5--5---7-7--10-------------------------
    A--5-5--3--3---5-5---8-------------------------
    E----------------------------------------------
    
    AFTER SOLO:
    E----------------------------------------------
    B----------------------------------------------
    G----------------------------------------------
    D----------5---------5---------5---------------
    A--2-3-4-5---2-3-4-5---2-3-4-5-----------------
    E----------------------------------------------
    
    PLAY REST OF SONG THE SAME, BUT ONE STEP UP:
    E----------------------------------------------
    B----------------------------------------------
    G----------------------------------------------
    D--7-7-7-7----------7-7-7-7-7------------------
    A--x-x-x-x--4-5-6-7---x-x-x-x------------------
    E--5-5-5-5------------5-5-5-5------------------
    
    E----------------------------------------------
    B----------------------------------------------
    G---------7----------7--7--5-------------------
    D-7-5-----7--7-5-----7--7--5--5--5--7--7--7--7-
    A-----7-5-5------7-5-5--5--3--5--5--x--x--x--x-
    E-----------------------------3--3--5--5--5--5-
    
    E----------------------------------------------
    B----------------------------------------------
    G----------9-9--7--7--9-9--12------------------
    D----------9-9--7--7--9-9--12------------------
    A-4-5-6-7--7-7--5--5--7-7--10------------------
    E----------------------------------------------
     

    Тональность:

    Нашли ошибку?



    Назад
    Рекомендуем посмотреть другие песни исполнителя «Gang James»:

    • Комменты Fb ()
    • Комменты ВК



    Добавить в Избранное Браузера
    Сохранить здесь Очистить


    x

    0


    +
    -

    +
    -

    -

    Авторизация





    Зарегистрироваться

    M

    Дата и время

    • 21:28:46
       

    Социальные ссылки


    Наши приложения

    • Muzbank App Play Market
    • Muzbank Amazon App