MUZBANK



A Most Complete Bank Of Music Information

МУЗЫКАЛЬНО-ИНФОРМАЦИОННЫЙ БАНК

Поиск по сайту







    GGarbage • I Think Im Paranoid (аккорды и текст - chords & lyrics)


    330

    Print

    Видео «I Think Im Paranoid (Garbage)»

    Видео клипы к песне подбираются автоматически сайтом youtube. Возможны некоторые несоответствия клипов песне.

    ↑ Спрятать рекламу ↑



    Download


    (guitar intro 4 bars)
    Verse
    Pre Chorus
    Chorus
    Verse riff X 4
    Verse
    Pre Chorus
    Chorus
    Bridge1
    Chorus
    Bridge2
    Outro
    ___________________________
    
    This Is What happens in each of the Parts of The song
    
    Verse
    
    G|----------------| |----------------||
    D|5-----5-3-----3-| |5---------------||
    A|----------------| X6 |----------------||
    E|----------------| |----------------||
    B|----------------| |----------------||
    You can look but...
    
    
    
    Pre chorus
    
    G|----------------|----------------|
    D|5-----5-3-----3-|6-----6-4-----4-|
    A|----------------|----------------| X3
    E|----------------|----------------|
    B|----------------|----------------|
    I think I'm Paranoid...
    
    G|----------------|----------------|----------------||
    D|5-----5-3-----3-|6---6---6---6-4-|--4---4-4-4-4-4-||
    A|----------------|----------------|----------------||
    E|----------------|----------------|----------------||
    B|----------------|----------------|----------------||
    
    
    
    Chorus
    
    G|----------------|----------------|----------------|----------------|
    D|----------------|----------------|----------------|----------------|
    A|1-----1-1---1---|--------------0-|1-----1-1---1/--|5-----5-5-7-5-3-|
    E|----------------|1-----1-1-0-1---|----------------|----------------|
    B|----------------|----------------|----------------|----------------|
    Beand me Break me...
    
    G|----------------|----------------|----------------|----------------|
    D|----------------|----------------|----------------|----------------|
    A|1-----1-1---1---|--------------0-|1-----1-1---1/--|5---------------|
    E|----------------|1-----1-1-0-1---|----------------|----------------|
    B|----------------|----------------|----------------|------3-3-3-3-3-|
    
    G|----------------||
    D|----------------||
    A|----------------||
    E|----------------||
    B|3-3-3-3-3-3-3-3-||
    
    
    
    Bridge1
    
    G|----------------| |----------------|
    D|----------------| |----------------|
    A|----------------| X3 |----------------|
    E|----------------| |----------------|
    B|5⁄--------------| |1---------------|
    
    
    G|----------------| |----------------|----------------||
    D|----------------| |----------------|----------------||
    A|----------------| X3 |----------------|----------------||
    E|----------------| |----------------|----------------||
    B|5⁄--------------| |1---1---1---1-1-|1-1-1-1-1-------||
    
    
    
    Bridge2
    
    G|----------------|----------------||
    D|----------------|----------------||
    A|----------------|----------------|| X 8
    E|3-----3-1-----1-|----------------||
    B|----------------|4-4-4-4-4-3-4-1-||
    Steal Me Deal Me...
    
    
    
    Outro
    
    G|----------------| |----------------||
    D|5-----5-3-----3-| |5---------------||
    A|----------------| x4 |----------------||
    E|----------------| |----------------||
    B|----------------| |----------------||
    
    Comments, suggestions or corrections welcome.
    

    Тональность:

    Нет текста!



    Назад
    Рекомендуем посмотреть другие песни исполнителя «Garbage»:

    • Комментарии Facebook ()
    • Комментарии ВКонтакте



    Добавить в Избранное Браузера
    Сохранить здесь Очистить


    x

    0


    +
    -

    +
    -

    -

    Авторизация





    Зарегистрироваться

    M

    Дата и время

    • 20:33:19
       

    Социальные ссылки


    Наши приложения

    • Muzbank App Play Market
    • Muzbank Amazon App