MUZBANK



A Most Complete Bank Of Music Information

МУЗЫКАЛЬНО-ИНФОРМАЦИОННЫЙ БАНК

Поиск по сайту







    GGarbage • My Lovers Box (аккорды и текст - chords & lyrics)


    233

    Print

    Видео «My Lovers Box (Garbage)»

    Видео клипы к песне подбираются автоматически сайтом youtube. Возможны некоторые несоответствия клипов песне.

    ↑ Спрятать рекламу ↑



    Download


    INTRO
    |-----------------|
    |-----------------|
    |---------5-5-5-5-|
    |-5-5-5-5-5-5-5-5-|
    |-5-5-5-5-3-3-3-3-|
    |-3-3-3-3---------|
    
    Lead
    |-18----18⁄17-----17⁄15-----15⁄13----10---10⁄8----8⁄6----6⁄3----|
    |---------------------------------------------------------------|
    |----15--------14--------12-------------7-------5------3--------|
    |---------------------------------------------------------------|
    |---------------------------------------------------------------|
    |---------------------------------------------------------------|
    
    
    VERSE
    |-------------------------------------------|
    |-3--3---3---3--3---3---3--3---3---6--------|
    |-3--3---3---3--3---3---3--3---3---5--------|
    |-5--5---5---5--5---5---5--5---5---5--------|
    |-6--6---6---6--6---6---6--6---6---3--------|
    |-------------------------------------------|
    
    
    CHORUS - Play intro
    
    
    VERSE 2 - Same
    
    
    CHORUS 2 - Same
    
    
    INTERLUDE
    
    Guitar 1
    |-----------------------------------------|
    |-----------------------------------------|
    |-7--------8------------------------------|
    |-7--------8---5--------8-----------------|
    |-5--------6---5--------8-----------------|
    |--------------3--------6-----------------|
    |Guitar 2
    |-----------------------------------------|
    |-----------------------------------15----|
    |--------------12-14-14-15-14-12----------|
    |--------------------------------15-------|
    |-----------------------------------------|
    |-----------------------------------------|
    
    Guitar 1
    |-----------------------------------------|
    |-----------------------------------------|
    |-7--------8------------------------------|
    |-7--------8---5--------8-----------------|
    |-5--------6---5--------8-----------------|
    |--------------3--------6-----------------|
    |Guitar 2
    |-----------------------------------------|
    |-----------------------------------------|
    |--------------12-14-14-15-14-12----------|
    |--------------------------------15-12----|
    |-----------------------------------------|
    |-----------------------------------------|
    
    Guitar 1
    |-----------------------------------------|
    |-----------------------------------------|
    |-7--------8------------------------------|
    |-7--------8---5--------8-----------------|
    |-5--------6---5--------8-----------------|
    |--------------3--------6-----------------|
    |Guitar 2
    |-----------------------------------------|
    |-----------------------------------15----|
    |--------------12-14-14-15-14-12----------|
    |--------------------------------15-------|
    |-----------------------------------------|
    |-----------------------------------------|
    
    
    BRIDGE - Play intro
    
    
    VERSE 3 - Same
    
    
    CHORUS 3 - Same
    
    
    OUTRO
    |-----------------------------------------|
    |-----------------------------------------|
    |-7--------8------------------------------|
    |-7--------8---5--------8-----------------|
    |-5--------6---5--------8-----------------|
    |--------------3--------6-----------------|
    

    Тональность:

    Нет текста!



    Назад
    Рекомендуем посмотреть другие песни исполнителя «Garbage»:

    • Комментарии Facebook ()
    • Комментарии ВКонтакте



    Добавить в Избранное Браузера
    Сохранить здесь Очистить


    x

    0


    +
    -

    +
    -

    -

    Авторизация





    Зарегистрироваться

    M

    Дата и время

    • 07:08:38
       

    Социальные ссылки


    Наши приложения

    • Muzbank App Play Market
    • Muzbank Amazon App