MUZBANK



A Most Complete Bank Of Music Information

МУЗЫКАЛЬНО-ИНФОРМАЦИОННЫЙ БАНК

Поиск по сайту







    ГГазманов Олег • Офицеры (аккорды и текст - chords & lyrics)


    2086

    Print

    Видео «Офицеры (Газманов Олег)»

    Видео клипы к песне подбираются автоматически сайтом youtube. Возможны некоторые несоответствия клипов песне.

    ↑ Спрятать рекламу ↑



    Download



    Dm Gm A7 Dm
    
                Dm
    Господа офицеры
                  D7
    По натянутым нервам
                 Gm
    Я аккордами веры
               Bdim/Db  Bdim7
    Эту песню пою
                         Dm  B
    Тем, кто, бросив карьеру
                 F  Gm
    Живота не жалея
                       Dm
    Свою грудь подставляет
           A7    Dm
    За Россию свою
    
    Тем, кто выжил в Афгане, свою честь не изгадив	Dm D7
    Кто карьеры не делал от солдатских кровей		D7 Gm Bdim7/Db ~ Bdim7
    Я пою офицерам матерей пожалевших			Bdim7 Dm B F
    Возвратив им обратно живых сыновей			Gm Dm A7 Dm
    
    Припев:
              Gm       A7
    Офицеры, офицеры
                Dm     Dm/C   B   B/A
    Ваше сердце под прицелом
                 Gm       A7        Dm Dm/e Dm/f Dm/A
    За Россию и свободу до конца
              Gm        A7
    Офицеры, россияне
                    Dm    Dm/C   B   B/A
    Пусть свобода в вос--сияет
              Gm        A7               Dm
    Заставляя в унисон звучать сердца
    
    Господа офицеры как сберечь вашу веру		Dm D7
    На разрытых могилах ваши души хрипят		D7 Gm Bdim7/Db ~ Bdim7
    Что ж мы братцы наделали, не смогли уберечь их	Bdim7 Dm B F
    И теперь они вечно в глаза нам глядят		Gm Dm A7 Dm
    
    Вновь уходят ребята, растворяясь в закатах	Dm D7
    Позвала их Россия, как бывало не раз		D7 Gm Bdim7/Db ~ Bdim7
    И опять вы уходите, может прямо на небо		Bdim7 Dm B F
    И откуда-то сверху прощаете нас			Gm Dm A7 Dm
    
                    Gm     A7
    Так куда ж вы уходите?
                    Dm Dm/C B  B/A
    Может прямо на небо
                  Dm       A7    Dm
    И откуда-то сверху прощаете нас
    
    Припев: --//--//--
    
    
    
    
       I                           I
    e|---|---|---|---| - Bdim7  e|---|---|---|---|  - Bdim7/Db
    H|---|-x-|---|---| 	    H|---|-x-|---|---|
    G|---|---|-x-|---|          G|---|---|-x-|---|
    X|---|---|---|---|          X|---|---|---|---|
    A|-x-|---|---|---|          A|---|---|---|-x-|
    X|---|---|---|---|          X|---|---|---|---|
    
       I                           I           
    e|-x-|---|---|---| - Dm/C   e|-x-|---|---|---|  - B/A
    H|---|---|-x-|---|          H|---|---|-x-|---|
    G|---|-x-|---|---|          A|---|---|-x-|---|
    D|---|---|---|---|          D|---|---|-x-|---|
    A|---|---|-x-|---|          A|---|---|---|---|
    X|---|---|---|---|          X|---|---|---|---|
    
       I                          I            
    e|-x-|---|---|---| - Dm/e  e|-x-|---|---|---|  - Dm/f
    H|---|---|-x-|---|         H|---|---|-x-|---|
    G|---|-x-|---|---|         G|---|-x-|---|---|
    D|---|-x-|---|---|         D|---|---|-x-|---|
    X|---|---|---|---|         X|---|---|---|---|
    X|---|---|---|---|         X|---|---|---|---|
    
    
    Вступление и заключение: 
    
       Dm                               Gm
    e|--10(-------8----6-5-----0--------6(-----5---3-3-----3------|
    H|--10)-10-------------6-----6------3)-3-----3-------3---3----|
    G|--10(----10---10-------7-----7----3(---3---------3-------3--|
    D|---0)-----------------------------5)------------------------|
    A|------------------------------------------------------------|
    E|------------------------------------------------------------|
    
         A7                                    Dm
    e|---6(-----5---1-1------0-------------1------1(---------------|
    H|---5)-5--------------2------3--3---3---3----3)---------------|
    G|---6(---6---6------0-----0-------2-------2--2(---------------|
    D|---7)--------------------------0------------0)---------------|
    A|----------------0--------------------------------------------|
    E|-------------------------------------------------------------|
    
    

    Тональность:

    Отправитель: Газманчик

    Нет текста!



    Назад
    Рекомендуем посмотреть другие песни исполнителя «Газманов Олег»:

    • Комментарии Facebook ()
    • Комментарии ВКонтакте



    Добавить в Избранное Браузера
    Сохранить здесь Очистить


    x

    0


    +
    -

    +
    -

    -

    Авторизация





    Зарегистрироваться

    M

    Дата и время

    • 06:59:45
       

    Социальные ссылки


    Наши приложения

    • Muzbank App Play Market
    • Muzbank Amazon App