MUZBANK



A Most Complete Bank Of Music Information

МУЗЫКАЛЬНО-ИНФОРМАЦИОННЫЙ БАНК

Поиск по сайту







    GGet Up Kids • The Company Dime (аккорды и текст - chords & lyrics)


    223

    Print

    Видео «The Company Dime (Get Up Kids)»

    Видео клипы к песне подбираются автоматически сайтом youtube. Возможны некоторые несоответствия клипов песне.

    ↑ Спрятать рекламу ↑



    Download


     
    
    
    ------------------------------------------------------------
                                THE COMPANY DIME - Get Up Kids
    ------------------------------------------------------------
    
    by Chris Neil
    cneil82@hotmail.com
    
    Intro:
    guitars 1 & 2 (clean with tremolo):
    -----2-2---
    -3-3-3-3---
    -2-2-2-2---
    -0-0-0-0---
    -----------
    ----------- 
    
    guitar 1:
    G(sus4)
    -3-3-3-3--------------------------
    -3-3-3-3--------------------------
    -4-4-4-4-------7-7-7-7/9-7-----7--
    -5-5-5-4h5-4----------------------
    -5-5-5-5-------5-5-5-5/7-5-----5--
    -3-3-3-3--------------------------
    
    guitar 2:
    -----------------------------------------------------
    --------------------------------------------------0--
    -7--7-7-7--7-7-7-7-7-7/9-7-----7-7-7--7-7-7-7-7-7-5--
    -----------------------------------------------------
    -5--5-5-5--5-5-5-5-5-5/7-5-----5-5-5--5-5-5-5-5-5-3--
    -----------------------------------------------------
    
    guitar 1:
    G(sus4)
    -3-3-3-3---------------------------------------------
    -3-3-3-3---------------------------------------------
    -4-4-4-4-------7-7-7-7/9-7---7-7-7--7-7-11-11-11-11--
    -5-5-5-4h5-4-----------------------------------------
    -5-5-5-5-------5-5-5-5/7-5---5-5-5--5-5--9--9--9--9--
    -3-3-3-3---------------------------------------------
    
    guitar 2:
    -----------------------------------------------------
    -----------------------------------------------------
    -7--7-7-7--7-7-7-7-7-7/9-7---7-7-7--7-7-11-11-11-11--
    -----------------------------------------------------
    -5--5-5-5--5-5-5-5-5-5/7-5---5-5-5--5-5--9--9--9--9--
    -----------------------------------------------------
    
    guitar 1:
    G(sus4)
    -3-3-3-3--------------------------
    -3-3-3-3--------------------------
    -4-4-4-4-------7-7-7-7/9-7-----7--
    -5-5-5-4h5-4----------------------
    -5-5-5-5-------5-5-5-5/7-5-----5--
    -3-3-3-3--------------------------
    
    guitar 2:
    -----------------------------------------------------
    --------------------------------------------------0--
    -7--7-7-7--7-7-7-7-7-7/9-7-----7-7-7--7-7-7-7-7-7-5--
    -----------------------------------------------------
    -5--5-5-5--5-5-5-5-5-5/7-5-----5-5-5--5-5-5-5-5-5-3--
    -----------------------------------------------------
    
    
    guitar 1:
    G(sus4)
    -3-3-3-3--------------------
    -3-3-3-3--------------------
    -4-4-4-4-------7-7-7-7/9-7--
    ----------------------------
    ----------------------------
    ----------------------------
     

    Тональность:

    Нет текста!



    Назад
    Рекомендуем посмотреть другие песни исполнителя «Get Up Kids»:

    • Комментарии Facebook ()
    • Комментарии ВКонтакте



    Добавить в Избранное Браузера
    Сохранить здесь Очистить


    x

    0


    +
    -

    +
    -

    -

    Авторизация





    Зарегистрироваться

    M

    Дата и время

    • 19:09:37
       

    Социальные ссылки


    Наши приложения

    • Muzbank App Play Market
    • Muzbank Amazon App