MUZBANK



A Most Complete Bank Of Music Information

МУЗЫКАЛЬНО-ИНФОРМАЦИОННЫЙ БАНК

Поиск по сайту







    GGodhead • Eleanor Rigby (аккорды и текст - chords & lyrics)


    336

    Print

    Видео «Eleanor Rigby (Godhead)»

    Видео клипы к песне подбираются автоматически сайтом youtube. Возможны некоторые несоответствия клипов песне.

    ↑ Спрятать рекламу ↑



    Download


     
    
    
    Eleanor Rigby
    
    tabbed by weavea03@excite.com
    
    Intro:
    |-----------------------|-----------------------------------------|
    |-----------------------|-----------------------------------------|
    |-----------------------|-----------------------------------------|
    |--12--11--10-----2-----|---12--11--10---2-2-2-2-2-2-2-2----------|
    |--12--11--10-----2-----|---12--11--10---2-2-2-2-2-2-2-2----------|
    |-----------------------|-----------------------------------------|
    
    
    Verse:
    
    play softly      let 12 ring with tremo
    |--------0-------12~~~~~~~-|
    |-----0--------------------|
    |--0-----------------------|
    |--------------------------|
    |--------------------------|
    |--------------------------|
    
    
    Chorus:
    
    |-----------------------------------------------------------------------------------|
    |-----------------------------------------------------------------------------------|
    |-----------------------------------------------------------------------------------|
    |--10-10-10-10-10-10-10-10-10-10-10-10-10-10-10-10--2-2-2-2-2-2-2-2-2-2-2-2-2-2-2-2-|
    |--10-10-10-10-10-10-10-10-10-10-10-10-10-10-10-10--2-2-2-2-2-2-2-2-2-2-2-2-2-2-2-2-|
    |-----------------------------------------------------------------------------------|
    
    wow thats it
     

    Тональность:

    Нет текста!



    Назад
    Рекомендуем посмотреть другие песни исполнителя «Godhead»:

    • Комментарии Facebook ()
    • Комментарии ВКонтакте



    Добавить в Избранное Браузера
    Сохранить здесь Очистить


    x

    0


    +
    -

    +
    -

    -

    Авторизация





    Зарегистрироваться

    M

    Дата и время

    • 17:26:36
       

    Социальные ссылки


    Наши приложения

    • Muzbank App Play Market
    • Muzbank Amazon App