MUZBANK



A Most Complete Bank Of Music Information

МУЗЫКАЛЬНО-ИНФОРМАЦИОННЫЙ БАНК

Поиск по сайту







    GGodsmack • Bad Religion (аккорды и текст - chords & lyrics)


    265

    Print

    Видео «Bad Religion (Godsmack)»

    Видео клипы к песне подбираются автоматически сайтом youtube. Возможны некоторые несоответствия клипов песне.

    ↑ Спрятать рекламу ↑



    Download



     
    
    
    Godsmack-Bad Religion
    Tab by Dan Scott
    
    Drop D Tuning (D,A,D,G)
    
    intro
    
    G:|----------------|
    D:|----------------|
    A:|----------------|
    D:|-0-0-00-0-00----|
    
    verse (x6):
       
    G:|------------------------------|-----------|
    D:|-----------------------------*|-----------|
    A:|-----------------------------*|-----------|
    D:|0-0-00-0-0-00-0-0-00-0-0-00---|(0)--------|
                                      last time let ring
    1st Chorus:
                                      
    G:|------------------|-----------------|
    D:|------------------|-----------------|
    A:|-5333335333335333-|8555558555558555-|
    D:|------------------|-----------------|
    
    
                                        
    G:|------------------|-----------------|
    D:|------------------|-----------------|
    A:|-5333335333335333-|-----------------|
    D:|------------------|-0-0-00-0-00-----|
    
    Verse (5x)
    
    2nd Chorus:                              3x      
    G:|------------------|-----------------------|
    D:|------------------|-----------------------|
    A:|-5333335333335333-|-8555558555558555------|
    D:|------------------|-----------------------|
    
    
                                        4th time
    G:|------------------|-------------------------|
    D:|------------------|-------------------------|
    A:|-5333335333335333-|-7-787-7-787-7--5-3-2--|
    D:|------------------|-------------------------|
    
    Bridge (2x)
                                         3x (1st time without Bass)
    G:|-----------------------|------------------------|
    D:|-----------------------|-----------------------*|
    A:|-5-------3-------------|-3-------2-------------*|
    D:|---0-0-0---0-0-3-1-3-5-|---0-0-0---0-0-3-1-3-5--|
    
    
    
                                         4th time          
    G:|-----------------------|------------------------|
    D:|-----------------------|-----------------------*|
    A:|-5-------3-------------|-3-------5-------------*|
    D:|---0-0-0---0-0-3-1-3-5-|---0-0-0---0-0-3-1-3-5--|
    
    Verse (5X)
     

    Тональность:

    Нет текста!



    Назад
    Рекомендуем посмотреть другие песни исполнителя «Godsmack»:

    • Комментарии Facebook ()
    • Комментарии ВКонтакте



    Добавить в Избранное Браузера
    Сохранить здесь Очистить


    x

    0


    +
    -

    +
    -

    -

    Авторизация





    Зарегистрироваться

    M

    Дата и время

    • 03:26:38
       

    Социальные ссылки


    Наши приложения

    • Muzbank App Play Market
    • Muzbank Amazon App